Song name
# A B C D E F G H I J K L M N O P Q R S T U V W X Y Z

Blue October - Let It Go tab

Let It Go - Blue October

Great song off Foiled.  The guitar is very subtle in the song but very good.  Thought I
try to put up exactly what it's doing since the only decent tab on here right now is
 Props to XAVIERSMITH for that chord tab (especially tabbing out the violin solo), which 
this a whole lot easier to figure out.

I tried to give you as many indicators as possible as to the timing, but you really need
listen to it to get it down.  Isolating the guitar as much as possible by shutting off
left speaker helps a lot.

Enjoy!

Intro:
e|-------------------------------------------|
B|-------------------------------------------|
G|-----5-5-4--4---4h5p4-2-0-----5---7-7/9v---|     3x
D|--------------------------3----------------|
A|-0-----------------------------------------|
E|-------------------------------------------|

Verse 1:

e|----------------------------------------------------------|
B|--------1-------------------------------------1-----------|
G|------0----0---------------------2----------0----0--------|
D|----2--------2-----------------3----3-----2--------2------|
A|-3---------------------------3---------3------------------|
E|--------------------------1-------------------------------|
         Where do you go...     ...day is long
e|----------------------------------------------------------|
B|--------1-------------1-----------------------1-----------|
G|------0----0------------0--------2----------0----0--------|
D|----2--------2------2----------3----3-----2--------2------|
A|-3----------------3----------3---------3------------------|
E|--------------------------1-------------------------------|
          ...heart beat and     ...Who is wrong

Chorus 1:

e|-------------------------------------------|
B|--------1--------------------------1-------|
G|------2----2----------2----------0----0----|
D|----2--------0------3----3-----2--------2--|
A|-0----------------3---------3--------------|
E|---------------1---------------------------|
  ...feel this way          ...kneel
e|----------------------------------|
B|--------1-------------------------|
G|------2----2----------2-----------|
D|----2--------0------3----3--------|
A|-0----------------3---------3-----|
E|---------------1------------------|
 ...let it go              ...feel

All the short F  C strumming parts after the chorus and at the end are played like this:

e|--------------------|
B|--1--1--1--1----1---|
G|--2--2--2--2----0---|
D|--3--3--3--3----2---|
A|--3--3--3--3----3---|
E|--------------------|

When 'How' is sung after the first chorus (see lyrics at the bottom), this is what is played:

e|------------------------------------------------------|
B|-----------------1--------------1--------------1------|
G|-0-------------2---2---------------2---------0----0---|
D|-2--2--2-----2-------2-0------3-------3----2--------2-|
A|-3--3--3--0-----------------3-----------3-------------|
E|-------------------------1----------------------------|
            How...

Verse 2 (same as verse , but pauses are eliminated)

e|--------------------------------------------------------------------|
B|--------1-------------1-------------------------1-------------1-----|
G|------0----0--------0----0---------2----------0----0--------0----0--|
D|----2--------2----2--------------3----3-----2--------2----2---------| X2
A|-3--------------3--------------3---------3--------------3-----------|
E|----------------------------1---------------------------------------|

Chorus 2:

e|------------------------------------------------------|
B|--------1--------------------------1-------------1----|
G|------2----2----------2----------0----0--------0----0-| X3
D|----2--------0------3----3-----2--------2----2--------|
A|-0----------------3---------3--------------3----------|
E|---------------1--------------------------------------|

e|----------------------------------|
B|--------1-------------------------|
G|------2----2----------2-----------|
D|----2--------0------3----3--------|
A|-0----------------3---------3~----|
E|---------------1------------------|

As far as the solos go, what I like to do is play the first half of the Harmonica solo,
into strumming the final chorus, and then play the last half of the violin solo once
chorus is over.  That is how I'll tab it out, just know that both solos are actually 
as long and played back to back behind the final chorus.

Harmonica Solo (uses some of the guitar part as well):

e|-1-0-------1-0-------------0~--------------------------|
B|-----3-1~------3-1~--3-1-3---------1-------------1-----|
G|---------------------------------0----0--------0----0--|
D|-------------------------------2--------2----2---------|
A|----------------------------3--------------3-----------|
E|-------------------------------------------------------|

e|-1-0-------1-0----------------------------------------|
B|-----3-1-------3-1---3-1-3-1------1-------------1-----|
G|--------------------------------0----0--------0----0--|
D|------------------------------3--------2----2---------|
A|---------------------------3--------------3-----------|
E|------------------------------------------------------|

Violin Solo:

e|----------------------------------------0-3--|
B|-1-3-0-1-3-1-0-1-1-3-0-1-3-1----------1------|
G|-----------------------------0---------------|
D|-------------------------------3-2-----------|
A|---------------------------------------------|
E|---------------------------------------------|

e|------------------------------------|
B|-1-3-0-1-3-1-0-1-1-3-0-1-3-1----1---|
G|-----------------------------0--0---|
D|------------------------------3-2---|
A|--------------------------------3---|
E|------------------------------------|

C
  Where do you go
         F      C
When the day is long
C
  And where does your heart beat
   F       C
And who is wrong

         Am             F
Why do I feel this way
         C
Why do I kneel
            Am         F
How could I let it go
         C
Why do I feel

F   C
       Why do I feel
F   C
       Why
C      Am      F     C
       How

C
   Follow me home
            F         C
Through the, the maize and awn
C
   I'll show you the road
       F                     C
That I led you the wrong way on

          Am            F
Why did I go that way
         C
Why do I steal
            Am          F
How could I let her go
         C
Why do I feel
             Am            F
Oh why did I go that way
         C
Why do I steal
            Am            F
How could I let her go
         C
Why do I feel

F   C
         Why do I feel
F   C               C
         Why

Harmonica Solo

(Strum)   Am            F
Why did I go that way
         C
Why do I need
            Am           F
How could I let her go
         C
Why do I feel
             Am            F
Oh why did I go that way
            C
How could I steal
               Am
Oh how could I
             F
How could I
             C
How could I

Violin Solo

F   C
        How could I
F   C
        How could I
F   C
Tap to rate this tab
# A B C D E F G H I J K L M N O P Q R S T U V W X Y Z