Guitaretab - guitar tabs
Song name
# A B C D E F G H I J K L M N O P Q R S T U V W X Y Z

Blue October - The End tab

THIS SONG HAS 2 GUITARS. BOTH OF THEM ARE TABBED. THEY WILL BE CONNECTED SO YOU KNOW WHEN 
TO PLAY THEM AT THE SAME TIME. AT PARTS WHERE THERE IS ONLY TAB FOR ONE GUITAR, THE OTHER
GUITAR IS SILENT
DROP D TUNING

INTRO

GUITAR 1 (G1) P.M. CLEAN
|-----------------------------------------------------------------|
|-----------------------------------------------------------------|
|-2-2-2-2-2-2-2-2-2-2-2-2-2-2-2-2-2-2-2-2-2-2-2-2-2-2-2-2-2-2-2-4-|
|-----------------------------------------------------------------|
|-----------------------------------------------------------------|
|-----------------------------------------------------------------|

G1 P.M.
|-----------------------------------------------------------------|
|-----------3-----------------------------------------------------|
|-5-5-5-5-5---2-2-2-2-2-2-2-2-2-2-2-2-2-2-2-2-2-2-2-2-2-2-2-2-2-2-|
|-----------------------------------------------------------------|
|-----------------------------------------------------------------|
|-----------------------------------------------------------------|

G1 P.M.
|-----------------------------------------------------------------|
|-----------------------------------------------------------------|
|-2-2-2-2-2-2-2-2-2-2-2-2-2-2-2-2-2-2-2-2-2-2-2-2-2-2-2-2-2-2-2-4-|
|-----------------------------------------------------------------|
|-----------------------------------------------------------------|
|-----------------------------------------------------------------|
|GUITAR 2 (G2) DISTORTED
|-----------------------------------------------------------------|
|-----------------------------------------------------------------|
|-----------------------------------------------------------------|
|-------3-----2-----------------------------------------------0/2-|
|-0---------------------------------------------------------------|
|-----------------------------------------------------------------|

G1 P.M.
|-----------------------------------------------------------------|
|-----------3-----------------------------------------------------|
|-5-5-5-5-5---2-2-2-2-2-2-2-2-2-2-2-2-2-2-2-2-2-2-2-2-2-2-2-2-2-2-|
|-----------------------------------------------------------------|
|-----------------------------------------------------------------|
|-----------------------------------------------------------------|
|G2
|-----------------------------------------------------------------|
|-----------------------------------------------------------------|
|-----------------------------------------------------------------|
|-------2---------------------------------------------------------|
|-3---------------------------------------------------------------|
|-------------3---------------------------------------------------|

VERSE (PLAY TAB TWICE)


G1 P.M.
|-----------------------------------------------------------------
|-----------------------------------------------------------------
|-2-2-2-2-2-2-2-2-2-2-2-2-2-2-2-2-2-2-2-2-2-2-2-2-2-2-2-2-2-2-2-4-
|-----------------------------------------------------------------
|-----------------------------------------------------------------
|-----------------------------------------------------------------
|G2
|-----------------------------------------------------------------
|-----------------------------------------------------------------
|-----------------------------------------------------------------
|-------3-----2-----------------------------------------------0/2-
|-0---------------------------------------------------------------
|-----------------------------------------------------------------
[ Tab from: http://www.guitaretab.com/b/blue-october/223418.html ]
G1 P.M.
-----------------------------------------------------------------|
-----------3-----------------------------------------------------|
-5-5-5-5-5---2-2-2-2-2-2-2-2-2-2-2-2-2-2-2-2-2-2-2-2-2-2-2-2-2-2-|
-----------------------------------------------------------------|
-----------------------------------------------------------------|
-----------------------------------------------------------------|
|G2
-----------------------------------------------------------------|
-----------------------------------------------------------------|
-----------------------------------------------------------------|
-------2---------------------------------------------------------|  
-3---------------------------------------------------------------|
-------------3---------------------------------------------------|

PRECHORUS

G1
|---------------------------------------------------------------------------|
|---------------------------------------------------------------------------|
|-5-------3-----------------------5-------3---------------------------------|
|-----------------6---5---------------------------6---5/6\5/6\5/6\5/6\5-----|
|-----3-------------------------------3-------------------------------------|
|---------------------------------------------------------------------------|
|G2
|---------------------------------------------------------------------------|
|---------------------------------------------------------------------------|
|---------------------------------------------------------------------------|
|---------------------------------------------------------------------------|
|-----11--10--------------------------11--10--------------------------------|
|-10--------------8---10----------10--------------8---10--------------------|

CHORUS (PLAY TAB TWICE)

G1
|-----------3---5---------------------3-6---5---------------------
|-----6-6---------------6-----------------------3-----------------
|-----------------------------------------------------------------
|-----------------------------------------------------------------
|-----------------------------------------------------------------
|-----------------------------------------------------------------
|G2
|-----------------------------------------------------------------
|-----------------------------------------------------------------
|-----------------------------------------------------------------
|-0-0-0-0-0-0-0-0-3-3-3-3-3-3-3-3-5-5-5-5-5-5-5-5-8-8-8-8-8-8-8-8-
|-0-0-0-0-0-0-0-0-3-3-3-3-3-3-3-3-5-5-5-5-5-5-5-5-8-8-8-8-8-8-8-8-
|-0-0-0-0-0-0-0-0-3-3-3-3-3-3-3-3-5-5-5-5-5-5-5-5-8-8-8-8-8-8-8-8-

G1
-----------3---5---------------3-6---5---------------------------|
-----6-6-6-------------6---------------3-------------------------|
-----------------------------------------------------------------|
-----------------------------------------------------------------|
-----------------------------------------------------------------|
-----------------------------------------------------------------|
|G2
-----------------------------------------------------------------|
-----------------------------------------------------------------|
-----------------------------------------------------------------|
-0-0-0-0-0-0-0-0-3-3-3-3-3-3-3-3-5-5-5-8-8-8-8-8-8-8-8-8-8-8-8-8-|  
-0-0-0-0-0-0-0-0-3-3-3-3-3-3-3-3-5-5-5-8-8-8-8-8-8-8-8-8-8-8-8-8-|
-0-0-0-0-0-0-0-0-3-3-3-3-3-3-3-3-5-5-5-8-8-8-8-8-8-8-8-8-8-8-8-8-|

G1 (F-P) (FADING VIOLIN)
|-8-10-8---8-10-8---8-10-8---8-10-8------------------------------|
|----------------------------------------------------------------|
|----------------------------------------------------------------|
|----------------------------------------------------------------|
|----------------------------------------------------------------|
|----------------------------------------------------------------|

BRIDGE

G1 P.M.
|----------------------------------------------|
|----------------------------------------------|
|---------2--------------------2-2-2-2---2---2-|
|----------------------------------------------|
|-0---------------3----------------------------|
|-----------------------3----------------------|

G1 P.M.
|-----------------------------------------------------------------|
|-----------------------------------------------------------------|
|-2-2-2-2-2-2-2-2-2-2-2-2-2-2-2-2-2-2-2-2-2-2-2-2-2-2-2-2-2-2-2-4-|
|-----------------------------------------------------------------|
|-----------------------------------------------------------------|
|-----------------------------------------------------------------|

G1 P.M.
|-----------------------------------------------------------------|
|-----------3-----------------------------------------------------|
|-5-5-5-5-5---2-2-2-2-2-2-2-2-2-2-2-2-2-2-2-2-2-2-2-2-2-2-2-2-2-2-|
|-----------------------------------------------------------------|
|-----------------------------------------------------------------|
|-----------------------------------------------------------------|

ORDER OF SONG:
INTRO
VERSE
PRECHORUS
CHORUS
VERSE
PRECHORUS
CHORUS
BRIDGE
VERSE
PRECHORUS
CHORUS (DONT PLAY THE FADING VIOLIN)
CHORUS (PLAY THE FADING VIOLIN)
Related for The End tab
The End chords by Blue October