Guitaretab - guitar tabs
Song name
# A B C D E F G H I J K L M N O P Q R S T U V W X Y Z

Blue October - Sorry Hearts tab

Blue October
Sorry Hearts
No Album

Intro:
E--------------------------------------------------------------------|
B-1-0-1-1h3-1---0h1-----1-----1------1-0-1-1h3-1---0h1-----1---------|
G-------------0-----0-----0-----0----------------0-----0-----0-----0-|
D----------------------------------------------------------------2---|
A-3-3-3-3---3---3-----3-----3------3-3-3-3-3---3---3-----3-----3-----|
E--------------------------------------------------------------------|

E------------------------------------------------------------------|
B---1-0-1-1h3-1-0-0---0-0h1-1h3-1-0-1-1h3-1---0h1-----1-----1------|
G-------------------0-----------------------0-----0-----0-----0----|
D------------------------------------------------------------------|
A-------------------------------3-3-3-3---3---3-----3-----3------3-|
E-3----------------------------------------------------------------|

Verse 1:
E-------------------------------------------------------------------|
B-1-0-1-1h3-1---0h1-----1-----1-----1-0-1-1h3-1---0h1-----1---------|
G-------------0-----0-----0-----0---------------0-----0-----0-----0-|
D---------------------------------------------------------------2---|
A-3-3-3-3---3---3-----3-----3-----3-3-3-3-3---3---3-----3-----3-----|
E-------------------------------------------------------------------|

E-------------------|
B---1-0-1-1h3-1-0-0-|
G-------------------|
D-------------------|
A-------------------|
E-3-----------------|

E-----------------------------------------------------------------------|
B-1-0-1-1h3-1---0h1-----1-----1------1-0-1-1h3-1---0h1-----1-----1------|
G-------------0-----0-----0-----0----------------0-----0-----0-----0----|
D-----------------------------------------------------------------------|
A-3-3-3-3---3---3-----3-----3------3-3-3-3-3---3---3-----3-----3------3-|
E-----------------------------------------------------------------------|

E--------------------------------------------------|
B-1-0-1-1h3-1---0h1-----1----1-----1-0-1-1h3-1-0-0-|
G-------------0-----0-----0------------------------|
D------------------------------0-------------------|
A-3-3-3-3---3---3-----3-----3----------------------|
E--------------------------------3-----------------|

E---------------------------------|
B-1-0-1-1h3-1---0h1-----1-----1---|
G-------------0-----0-----0-------|
D-------------------------------0-|
A-3-3-3-3---3---3-----3-----3-----|
E---------------------------------|

Because we all…
E-----------------------------------------------------------------|
B-----1-------1-------1-------1---1-0-1-1h3-1---0h1-----1-----1---|
G-------0-------0-------0-------0-------------0-----0-----0-------|
D---0-------0-------0-------0-----------------------------------0-|
A---------------------------------3-3-3-3---3---3-----3-----3-----|
E-3--------3------3-------3---------------------------------------|

E-----------------------------------------------------------------|
B-----1-------1-------1-------1---1-0-1-1h3-1---0h1-----1-----1---|
G-------0-------0-------0-------0-------------0-----0-----0-----0-|
D---0-------0-------0-------0-------------------------------------|
A---------------------------------3-3-3-3---3---3-----3-----3-----|
E-3--------3------3-------3---------------------------------------|

Verse 2:
E-------------------------------------------------------------------|
B-1-0-1-1h3-1---0h1-----1-----1-----1-0-1-1h3-1---0h1-----1----1----|
G-------------0-----0-----0-----0---------------0-----0-----0-------|
D-----------------------------------------------------------------0-|
A-3-3-3-3---3---3-----3-----3-----3-3-3-3-3---3---3-----3-----3-----|
E-------------------------------------------------------------------|

E-------------------|
B---1-0-1-1h3-1-0-0-|
G-------------------|
D-------------------|
A-------------------|
E-3-----------------|
[ Tab from: http://www.guitaretab.com/b/blue-october/244761.html ]
E-----------------------------------------------------------------------|
B-1-0-1-1h3-1---0h1-----1-----1-------1-0-1-1h3-1---0h1-----1-----1-----|
G-------------0-----0-----0-----0-----------------0-----0-----0-----0---|
D-----------------------------------------------------------------------|
A-3-3-3-3---3---3-----3-----3------3--3-3-3-3---3---3-----3-----3-----3-|
E-----------------------------------------------------------------------|

E------------------------------------------------------------------|
B-1-0-1-1h3-1---0h1-----1----1------1-0-1-1h3-1---0---0------------|
G-------------0-----0-----0---------------------0-------0----0---0-|
D-------------------------------0------------------------------0---|
A-3-3-3-3---3---3-----3-----3--------------------------------------|
E---------------------------------3-----------------3------3-------|

E----------------------------------|
B-1-0-1-1h3-1---0h1-----1-----1----|
G-------------0-----0-----0--------|
D--------------------------------0-|
A-3-3-3-3---3---3-----3-----3------|
E----------------------------------|

Cause yeah we all…
E------------------------------------------------------------------|
B-----1-------1-------1-------1---1-0-1-1h3-1---0h1-----1-----1----|
G-------0-------0-------0-------0-------------0-----0-----0--------|
D---0-------0-------0-------0------------------------------------0-|
A---------------------------------3-3-3-3---3---3-----3-----3------|
E-3--------3------3-------3----------------------------------------|

E---------------------------------------------------------------------|
B-----1-------1-------1-------1---1-0-1-1h3-1---0h1-----1-----1-------|
G-------0-------0-------0-------0-------------0-----0-----0-----0-----|
D---0-------0-------0-------0-----------------------------------------|
A---------------------------------3-3-3-3---3---3-----3-----3-------3-|
E-3--------3------3-------3-------------------------------------------|

Verse 3:
E-------------------------------------------------------------------------|
B-1-0-1-1h3-1---0h1-----1-----1-------1-0-1-1h3-1---0h1--1-----1----------|
G-------------0-----0-----0-----0-----------------0---------------0-----0-|
D---------------------------------------------------------------------2---|
A-3-3-3-3---3---3-----3-----3-------3-3-3-3-3---3---3-------3-------3-----|
E-------------------------------------------------------------------------|

E-------------------|
B---1-0-1-1h3-1-0-0-|
G-------------------|
D-------------------|
A-------------------|
E-3-----------------|

E---------------------------------|
B-1-0-1-1h3-1---0h1-----1-------1-|
G-------------0-----0-----0-------|
D-----------------------------2---|
A-3-3-3-3---3---3-----3-----3-----|
E---------------------------------|

And I‘m here to tell you…
E-----------------------------------------------------------------|
B-1-0-1-1h3-1---0h1-----1-----1-------1-------1-------1-------1---|
G-------------0-----0-----0-------------0-------0-------0-------0-|
D-------------------------------0---0-------0-------0-------0-----|
A-3-3-3-3---3---3-----3-----3-------------------------------------|
E---------------------------------3-------3-------3-------3-------|

E-------------------------------------|
B-1-0-1-1h3-1---0h1-----1-----1-------|
G-------------0-----0-----0-----0-----|
D-------------------------------------|
A-3-3-3-3---3---3-----3-----3-------3-|
E-------------------------------------|

Outro:
E--------------------------------------------------------------------|
B-1-0-1-1h3-1---0h1-----1-----1------1-0-1-1h3-1---0h1-----1-------1-|
G-------------0-----0----0------0----------------0-----0------0------|
D----------------------------------------------------------------2---|
A-3-3-3-3---3---3-----3-----3------3-3-3-3-3---3---3-----3-----3-----|
E--------------------------------------------------------------------|

E------------------------------------------------|
B---1-0-1-1h3-1-0-0---0-0h1-1h3-1-0-1-1h3-1----1-|
G-------------------0------------------------0---|
D----------------------------------------------2-|
A-------------------------------3-3-3-3---3----3-|
E-3----------------------------------------------|

Questions?
Email at cory.roesch@yahoo.com
Related for Sorry Hearts tab
Sorry Hearts chords by Blue October