Song name
# A B C D E F G H I J K L M N O P Q R S T U V W X Y Z

Blue October - Amnesia tab

Blue October
Amnesia
Consent To Treatment

Verse: The 7's on the G string fade
E------------------|
B------------------|
G-7-7-7------7-7-7-|
D-7-7--------7-7---|
A-5-5--------5-5---|
E------------------|

Pre-Chorus:
E-----------------------------------|
B-----------------------------------|
G-2~-4~-2~-4~-2~-4~-2-222-222~-222~-|
D-2~-4~-2~-4~-2~-4~-2-222-222~-222~-|
A-0~-2~-0~-2~-0~-2~-0-000-000~-000~-|
E-----------------------------------|

Chorus:
E-------------------|
B-------------------|
G-7~---2~---4~------|
D-7~---2~---4~---5~-|
A-5~---0~---2~---5~-|
E----------------3~-|

2nd Pre-Chorus:
E-----------------------|
B-----------------------|
G-2~-4~-2-222-222~-222~-|
D-2~-4~-2-222-222~-222~-|
A-0~-2~-0-000-000~-000~-|
E-----------------------|

Questions?
Email at cory.roesch@yahoo.com
Tap to rate this tab
 
# A B C D E F G H I J K L M N O P Q R S T U V W X Y Z