Song name
# A B C D E F G H I J K L M N O P Q R S T U V W X Y Z

Blue October - Balance Beam tab

Blue October
Balance Beam
Consent To Treatment

Note - The song is very basic but still fun.
It's just the verse and chorus.

Verse:
E------------------------------------------------------------------|
B------------------------------------------------------------------|
G-----------------7777777555555555----------------7777777777777777-|
D-5555555555555555777777755555555522222222222222227777777777777777-|
A-5555555555555555555555533333333322222222222222225555555555555555-|
E-3333333333333333----------------0000000000000000-----------------|

Chorus:
E---------------------------------------|
B---------------------------------------|
G-----5-------7-7-5-55-5-----5-------7~-|
D-5---5---5---7-7-5-55-5-5---5---5---7~-|
A-5---3---5---5-5-3-33-3-5---3---5---5~-|
E-3-------3--------------3-------3------|

Outro: Continuous Strum
E--|
B--|
G--|
D-5|
A-5|
E-3|

Questions?
Email at cory.roesch@yahoo.com
Tap to rate this tab
# A B C D E F G H I J K L M N O P Q R S T U V W X Y Z