Blue October - The Answer tab

Blue October
The Answer
Consent To Treatment

Note - The song is two guitars on top
of each other so it's pretty hard to figure
out but I did my best and this is a rough
sketch but the basis of the song.

Pretty much the whole song:
E-------0------0-------0------0--------|
B----------1------1-------1------1---0-|
G-----2------2------2-------2------2---|
D---2----------------------------------|
A-0------------------------------------|
E--------------------------------------|

E-------0--------------0--------|
B----------0---0----------0---0-|
G------------0--------------0---|
D-----2--------------2----------|
A---2--------------2------------|
E-0--------------0--------------|

E---------3-------------3--------|
B-----------3--------------3---0-|
G-------0-----0--------------0---|
D-----0---------0-----0----------|
A---2---------------2------------|
E-3---------------3--------------|

E-------0---------------0--------|
B----------1---1-----------1---1-|
G-----2------2-------2-------2---|
D---2--------------2-------------|
A-0--------------0---------------|
E--------------------------------|

Understand/But in my head/Etc:
E-------0--------------0--------|
B----------1---1----------1---1-|
G-----0------0-------0------0---|
D---2--------------2------------|
A-3--------------3--------------|
E-------------------------------|
2x

E-------0--------------0--------|
B----------1---1----------1---1-|
G-----2------2-------2------2---|
D---2--------------2------------|
A-0--------------0--------------|
E-------------------------------|
2x

Questions?
Email at cory.roesch@yahoo.com
Tap to rate this tab
 
# A B C D E F G H I J K L M N O P Q R S T U V W X Y Z