Song name
# A B C D E F G H I J K L M N O P Q R S T U V W X Y Z

Blue October - Somebody tab

Blue October
Somebody
History For Sale

Drop D

Note - The 3's in the intro might just be him
hitting the string with no note but his finger
on top of it.

Intro/Outro:
E-------------------------------|-----2-------2-------2---------|
B-------------------------------|-------------------------------|
G-------------------------------|-------------------------------|
D-------------------------------|-------------------------------|
A-----------------------------1-|-----------------------------1-|
D-0-0-3-00-00-3-000-0-3-00-000--|-0-0---00-00---000-0---00-000--|

Verse:
E-----2-------2-------2-------|
B-----------------------------|
G-----------------------------|
D-----------------------------|
A-----------------------------|
D-0-0---00-00---000-0---00-00-|

Pre-Chorus:
E-----2--------------2---------|
B------------------------------|
G------------------------------|
D------------------------------|
A-------------3--------------1-|
E-0-0---00-00----0-0---00-00---|

Chorus:
E---------------------------------|
B---------------------------------|
G---------------------------------|
D-0-7-5-0-5-3-0-3-0-0-x-00-0-x-xx-|
A-0-7-5-0-5-3-0-3-0-0-x-00-0-x-xx-|
E-0-7-5-0-5-3-0-3-0-0-x-00-0-x-xx-|

Post-Chorus:
E------------------------------------------|
B------------------------------------------|
G------------------------------------------|
D------------------------------------------|
A------------------------------------------|
E-0-0-00-00-0-0-00-00--0-0-00-00-0-0-00-00-|

Verse 2:
E-----2-------2-------2---------|
B-------------------------------|
G-------------------------------|
D-------------------------------|
A-----------------------------1-|
D-0-0---00-00---000-0---00-000--|

Break:
E--------------------------------------------|
B--------------------------------------------|
G--------------------------------------------|
D-0~---7~---5~---3-3-3-5p0---5p0---5p0---5p0-|
A-0~---7~---5~---3-3-3-5p0---5p0---5p0---5p0-|
D-0~---7~---5~---3-3-3-5p0---5p0---5p0---5p0-|

Outro:
E-----2-------2-------2---------|-----2--------------2---------|
B-------------------------------|------------------------------|
G-------------------------------|------------------------------|
D-------------------------------|------------------------------|
A-----------------------------1-|-------------3--------------1-|
D-0-0---00-00---000-0---00-000--|-0-0---00-00----0-0---00-00---|

E-----2-----------------------|
B-----------------------------|
G-----------------------------|
D-----------------------------|
A-------------3---------------|
E-0-0---00-00----0000-00-03/0-|


Questions?
Email at cory.roesch@yahoo.com
Tap to rate this tab
 
# A B C D E F G H I J K L M N O P Q R S T U V W X Y Z