Song name
# A B C D E F G H I J K L M N O P Q R S T U V W X Y Z

Blue October - The Honesty tab

Solo part for "The Honesty" from "Any Man in America" from Blue October
My first tab, please comment if I made any mistake.

Tuning: standard

e|---------------------------------|
B|---------------------------------|
G|------0-2-5-4-0------------------|
D|----0-----------2----------------|
A|---------------------------------|
E|---------------------------------|

e|---------------------------------|
B|----------------5----------------|
G|------0-2-5-4-0------------------|
D|----0----------------------------|
A|---------------------------------|
E|---------------------------------|

e|---------------------------------|
B|---------------------------------|
G|------0-2-5-4-0------------------|
D|----0-----------2----------------|
A|---------------------------------|
E|---------------------------------|

e|---------------------------------|
B|----------3-1-0------------------|
G|------0-2-------2----------------|
D|----0----------------------------|
A|---------------------------------|
E|---------------------------------|


Tap to rate this tab
# A B C D E F G H I J K L M N O P Q R S T U V W X Y Z