Song name
# A B C D E F G H I J K L M N O P Q R S T U V W X Y Z

Blue October - Let It Go tab

Blue October
Let it go
Foiled
2006

Let note ring= ~
Pull-off= p
Hammer on= h
Slide= s

Play 3 Times :Note: let last note ring at the end of the third time.
e---------------------------------------|
B----1-1p0~--0h1p0----------------------|
G------------------2-0-----5-7-7s9------|
D-----------------------3---------------|
A-0~------------------------------------|
E---------------------------------------|

I find it best to start with A minor formation in the beginning with this first tab if 
your a beginner especially because then it is easier to switch to the C chord for the 
song itself

There is also the alternative way to play this tab without A minor formation for more 
advanced players who have no problem climbing the neck to the C chord, which goes like the 
tab below:

e---------------------------------------|
B---------------------------------------|
G-----5-5s4-4~--4h5p4--2-0---5-7-7s9----|
D--------------------------3------------|
A-0~------------------------------------|
E---------------------------------------|
Tap to rate this tab
# A B C D E F G H I J K L M N O P Q R S T U V W X Y Z