Song name
# A B C D E F G H I J K L M N O P Q R S T U V W X Y Z

Blue October - Let It Go tab

Blue October
Let It Go
Foiled

This is a perfect tab for this song. However, if out of some crazy circumstance,
an error is found, let me know and I'll correct it.
Some notes you have to listen insanely close to hear. Enjoy!

Intro:
E--------------------------------------------------------------------------------|
B----1-1-0--0~----0h1p0--------1---3-3/5----1-1-0--0~-----0h1p0--------1---3-3/5-|
G---------------2-------2-0----------------------------2--------2-0--------------|
D---------------------------3~---3----------------------2-----------3~---3-------|
A-0~-------------------------------------0~--------------------------------------|
E--------------------------------------------------------------------------------|

E------------------------------------------|
B------1-1-0--0~----0h1p0--------1---3-3/5-|
G---2--------------2-------2-0-------------|
D--2---------------------------3~---3------|
A-0~---------------------------------------|
E------------------------------------------|

Verse 1:
E-------------------------------------------------------------------------------------------------|
B--------1---------------1-------------1--------------1-----------1----------1------------1-------|
G----0------0--------2------2------0------0---------0----0----------0----2------2-------0---0-----|
D------2------2~--3----3------3------2------2~----2--------2----2------3---3------3---2-------2~--|
A-3-----------------------------3--------------3--------------3---------------------3-------------|
E-------------------------------------------------------------------------------------------------|

Chorus
E--------------------------------------------------------------------|
B--------1-----------1------------1--------------1-----------1-------|
G------2---2-----2------2-------0---0----------2---2-----2------2----|
D----2------2-3----3----------2------2~------2------2-3----3---------|
A-0------------------------3--------------0------------------------3-|
E--------------------------------------------------------------------|

E-------------------------------------------------------------|
B-----------------------------1------------1------------1-----|
G-5555----5555--------------2---2------2------2-------0---0---|
D-3333-5~-3333-5~-55-5----2-------2-3----3----------2------2~-|
A------3~------3--33-3-0-------------------------3------------|
E-------------------------------------------------------------|

Verse 2:
E-----------------------------------------------------------------|
B--------1-------------1------------1-------------1-----------1---|
G------0----0--------0----0-----2------2--------0----0----------0-|
D----2--------2----2---------3----3------3----2--------2----2-----|
A-3--------------3-------------------------3--------------3-------|
E-----------------------------------------------------------------|

Chorus 2:
E-----------------------------------------------------|
B--------1------------1------------1-------------1----|
G------2----2-----2------2-------0----0--------0----0-|
D----2-------2-3----3----------2--------2----2--------|
A-0-------------------------3--------------3----------|
E-----------------------------------------------------|
3x

E-----------------------------------------------------|
B--------1------------1-------------------------------|
G------2----2-----2------2------5555-----5555---------|
D----2-------2-3----3-----------3333-5~--3333-5~-55-5-|
A-0-------------------------3~-------3~-------3~-33-3-|
E-----------------------------------------------------|

E---------------------------------------------------|
B--------1------------1------------1-----------1----|
G------2---2------2------2-------0---0-------0----0-|
D----2-------2-3----3----------2------2----2--------|
A-0-------------------------3------------3----------|
E---------------------------------------------------|

GUITAR 2:
E------0~-------0~------0~-----------1~-----------0~-------------|
B------1~-------1~------1~----1~-----1~----1~-----1~-------------|
G------0~-------0~------2~------2~---2~------2~---0~-------------|
D------2~-------2~------2~-----------3~-----------2~---3-2-3-2---|
A------3~-------3~------0~-----------3~-----------3~-----------3-|
E------------------------------------1~--------------------------|

Chorus 3:
E-------------------------------------------------|
B--------1-----------1------------1-----1-------1-|
G------2---2-----2------2-------0---0-------0-----|
D----2------2-3----3----------2-------2-------2---|
A-0------------------------3----------------------|
E-------------------------------------------------|

GUITAR 2:
E-0~----------1~-----------0~-------------|
B-1~---1~-----1~----1~-----1~-------------|
G-2~-----2~---2~------2~---0~-------------|
D-2~----------3~-----------2~---3-2-3-2---|
A-0~----------3~-----------3~-----------3-|
E-------------1~--------------------------|

Outro:
E---------------------------------------------------------|
B--------1-----------1------------------------------------|
G------2---2-----2------2------5555-----5555-----5-5-5----|
D----2------2-3----3-----------3333-5~--3333-5~--3-3-3-5~-|
A-0------------------------3~-------3~-------3~--------3~-|
E---------------------------------------------------------|

GUITAR 2:
E-----------------------------------0~-------0~--------0~-|
B-----------------------------------1~-------1~--------1~-|
G-----------------------------------0~-------0~--------0~-|
D-----------------------------------2~-------2~--------2~-|
A-----------------------------------3~-------3~--------3~-|
E---------------------------------------------------------|

Questions?
Email at cory.roesch@yahoo.com
Tap to rate this tab
# A B C D E F G H I J K L M N O P Q R S T U V W X Y Z