Song name
# A B C D E F G H I J K L M N O P Q R S T U V W X Y Z

Blue October - Ugly Side tab

Blue October
Ugly Side
Razorblade

This song is mainly chords except for chorus and break

Verse: 2x
E-------------------------------------------------------------|
B-33xxxx33xxxx3~-33xxxx33xxxx3~-22xxxx22xxxx2~-22xxxx22xxxx2~-|
G-44xxxx44xxxx4~-44xxxx44xxxx4~-22xxxx22xxxx2~-22xxxx22xxxx2~-|
D-44xxxx44xxxx4~-44xxxx44xxxx4~-22xxxx22xxxx2~-22xxxx22xxxx2~-|
A-22xxxx22xxxx2~-22xxxx22xxxx2~-00xxxx00xxxx0~-00xxxx00xxxx0~-|
E-------------------------------------------------------------|

E------------------------------|
B-33xxxx33xxxx3~-00xxxx00xxxx0~|
G-00xxxx00xxxx0~-11xxxx11xxxx1~|
D-00xxxx00xxxx0~-22xxxx22xxxx2~|
A-22xxxx22xxxx2~-22xxxx22xxxx2~|
E-33xxxx33xxxx3~-00xxxx00xxxx0~|

E------------------------------|
B-33xxxx33xxxx3~-33xxxx33xxxx3~|
G-44xxxx44xxxx4~-44xxxx44xxxx4~|
D-44xxxx44xxxx4~-44xxxx44xxxx4~|
A-22xxxx22xxxx2~-22xxxx22xxxx2~|
E------------------------------|

Chorus:
E-------------|
B-------------|
G---7-2-------|
D-5-7-2-5-4-2-|
A-5-5-0-5-4-2-|
E-3-----3-2-0-|

Verse: 2x
E-------------------------------------------------------------|
B-33xxxx33xxxx3~-33xxxx33xxxx3~-22xxxx22xxxx2~-22xxxx22xxxx2~-|
G-44xxxx44xxxx4~-44xxxx44xxxx4~-22xxxx22xxxx2~-22xxxx22xxxx2~-|
D-44xxxx44xxxx4~-44xxxx44xxxx4~-22xxxx22xxxx2~-22xxxx22xxxx2~-|
A-22xxxx22xxxx2~-22xxxx22xxxx2~-00xxxx00xxxx0~-00xxxx00xxxx0~-|
E-------------------------------------------------------------|

E------------------------------|
B-33xxxx33xxxx3~-00xxxx00xxxx0~|
G-00xxxx00xxxx0~-11xxxx11xxxx1~|
D-00xxxx00xxxx0~-22xxxx22xxxx2~|
A-22xxxx22xxxx2~-22xxxx22xxxx2~|
E-33xxxx33xxxx3~-00xxxx00xxxx0~|

1st time thru
E------------------------------|
B-33xxxx33xxxx3~-33xxxx33xxxx3~|
G-44xxxx44xxxx4~-44xxxx44xxxx4~|
D-44xxxx44xxxx4~-44xxxx44xxxx4~|
A-22xxxx22xxxx2~-22xxxx22xxxx2~|
E------------------------------|

2nd time thru
E---------------------------|
B---------------------------|
G-4-4----4-4----4-4----4-4--|
D-4-4----4-4----4-4----4-4--|
A-2-2----2-2----2-2----2-2--|
E---------------------------|

Chorus:
E-----------------------------|
B-----------------------------|
G----7~-2~----4~-7~-2~--------|
D-5~-7~-2~-5~-4~-7~-2~-5~-4-2-|
A-5~-5~-0~-5~-2~-5~-0~-5~-4-2-|
E-3~-------3~----------3~-2-0-|

Break:
E-----------------------------------|
B-----------------------------------|
G-4-4---4-4---4----2~-7-6-4~-7-6-4~-|
D-4-4---4-4---4-5~-2~-7-6-4~-7-6-4~-|
A-2-2---2-2---2-5~-0~-5-4-2~-5-4-2~-|
E---------------3~------------------|

Outro: 2x
E---------------|
B-3-----2-----3-|
G-0-----2-----4-|
D-0-----2-----4-|
A-2-----0-----2-|
E-3-------------|

then

E------------------2-|
B-3-----2--------3-3-|
G-0-----2-------4--4-|
D-0-----2------4---4-|
A-2-----0-----2----2-|
E-3------------------|

That's it. Pretty simple. Awesome song. Enjoy!
Questions?
Email at Coldfry1@aol.com
Tap to rate this tab
# A B C D E F G H I J K L M N O P Q R S T U V W X Y Z