Song name
# A B C D E F G H I J K L M N O P Q R S T U V W X Y Z

Blue October - Sexual Powertrip tab

Blue October
Sexual Powertrip
History For Sale

Standard Tuning

Great song to play and easy too! Enjoy!

(In Order of Appearance lol)

[]-Played First time through only

Intro: harmonics (2nd guitar)
E----------
B----------
G-5----5---
D----------
A---3-----3
E----------

Riff 1
E-----[0]-----------------------------------|
B--------[1]--------------------------------|
G-[2]----------------------0--0-0-----------|
D-[2]-------------2--2-3-2--------2-3-2-3-2-|
A-[0]----------3----------------------------|
E-------------------------------------------|

Riff 2
E-------------------------------------|
B-------------------------------------|
G-10-10-10-10-9-9-9-9-7-7-7-7-5-5-5-5-|
D-x--x--x--x--x-x-x-x-x-x-x-x-x-x-x-x-|
A-8--8--8--8--7-7-7-7-5-5-5-5-3-3-3-3-|
E-------------------------------------|

Riff 3 (The middle of the verse is just some scratching over the strings)
E-x-x-x--x--x--x-|
B-x-x-x--x--x--x-|
G-x-x-x--x--x--x-|
D-x-x-x--x--x--x-|
A-x-x-x--x--x--x-|
E-x-x-x--x--x--x-|

Riff 4 the 0,1 is played on the second time around
E-------------------------------0---|
B---------------------------------1-|
G-------------0--0-0----------------|
D----2--2-3-2--------2-3-2-3-2------|
A-0---------------------------------|
E-----------------------------------|

Riff 5 strummed throughout entire part (you'll know what i mean)
E--
B--
G--
D--
A-3
E--

Riff 6
E-------|
B-------|
G-7-9-5-|
D-x-x-x
A-5-7-3-|
E-------|

Riff 7 strum the 15x17 to the end
E----------------|
B----------------|
G-10-12-14-16-17-|
D-x---x--x--x--x-|
A-8--10-12-14-15-|
E----------------|

Order:
Riff 1-------|4x
Riff 2-------|2x
Riff 3-------|1x
Riff 2-------|2x
Riff 1-------|2x
Riff 4-------|2x
Riff 5----64-|x lol i counted.
Riff 2-------|2x
Riff 6-------|1x
Riff 5----32-|x only half that time lol.
Riff 2-------|2x
Riff 7-------|1x

That's it, hope it isn't too hard to understand but i'm practically 100% sure that's 
Have fun with it.

Questions? Email me at Coldfry1@aol.com
Tap to rate this tab
# A B C D E F G H I J K L M N O P Q R S T U V W X Y Z