Song name
# A B C D E F G H I J K L M N O P Q R S T U V W X Y Z

Blue October - Holler tab

                                  Blue October
                                     Holler
                              Consent To Treatment

This song is off one of their 5 albums Consent To Treatment. Every single one of their 
is awesome. This is my favorite band of all time so listen to their songs.

Standard Tuning

Intro:
e------------------------------------------------|
b------------------------------------------------|
g------------------------------------------------|
d------------------------------------------------|
a------------------------------------------------|
e--0--0--3--0--3--0--3--0-----0--3--0--3--0--5---|

Verse:
e-----------|
b-----------|
g-----------|
d-----------|
a-----------|
e--0--5/0---|

Chorus:
e------------------|
b------------------|
g------7---5---5---|
d--5---7---5---5---|
a--5---5---3---3---|
e--3---------------|
hit each chord 4 times

Break:
e------------------------------------------|
b------------------------------------------|
g------------------------------------------|
d------------------------------------------|
a------------------------------------------|
e--0--0--0--0--3--0--0--0--0--0--0--0--5---|
pick that very fast

Outro:
e---------------------------|
b---------------------------|
g---------------------------|
d---------------------------|
a---------------------------|
e--0--0--3--0--3--0--3--0---|

Intro 4x
Verse 3x
Chorus 2x
Intro 4x
Verse 3x
Chorus 2x
Intro 4x
Chorus 2x
Break 11x
Chorus 2x
Intro 2x
Outro 3x

/=slide down

Great Song. Have Fun Playing It.
Tap to rate this tab
 
# A B C D E F G H I J K L M N O P Q R S T U V W X Y Z