Song name
# A B C D E F G H I J K L M N O P Q R S T U V W X Y Z

Blue October - Sound Of Pulling Heaven Down tab

Blue October
Sound of Pulling Heaven Down
Foiled

Standard Tuning

Intro: each notes twice. last 355 is once
E---------------------------------|
B---------------------------------|
G-5-5-5-5-5-5-5-5-----------------|
D-5-5-5-5-5-5-5-5-2-2-2-2-2-2-2-2-|
A-3-3-3-3-3-3-3-3-2-2-2-2-2-2-2-2-|
E-----------------0-0-0-0-0-0-0-0-|

E-------------------------------------|
B-------------------------------------|
G-------------------------------4-4-4-|
D-3-3-3-3-3-3-3-3-5-5-5-5-5-5-5-4-4-4-|
A-3-3-3-3-3-3-3-3-5-5-5-5-5-5-5-2-2-2-|
E-1-1-1-1-1-1-1-1-3-3-3-3-3-3-3-------|

Verse:
E---------------------------------|
B---------------------------------|
G-5-5-5-5-5-5-5-5-----------------|
D-5-5-5-5-5-5-5-5-2-2-2-2-2-2-2-2-|
A-3-3-3-3-3-3-3-3-2-2-2-2-2-2-2-2-|
E-----------------0-0-0-0-0-0-0-0-|

E---------------------------------|
B---------------------------------|
G---------------------------------|
D-3-3-3-3-3-3-3-3-5-5-5-5-5-5-5-5-|
A-3-3-3-3-3-3-3-3-5-5-5-5-5-5-5-5-|
E-1-1-1-1-1-1-1-1-3-3-3-3-3-3-3-3-|

Chorus: twice
E---------------------------------|
B---------------------------------|
G-2-2-2---4--4-4------------------|
D-3-3-3---5--5-5---7-7-7---7--7-7-|
A-3-3-3---5--5-5---7-7-7---7--7-7-|
E-1-1-1---3--3-3---5-5-5---5--5-5-|

then

E---------------------------------|
B---------------------------------|
G-2-2-2---4--4-4---0-0-0---2--2-2-|
D-3-3-3---5--5-5---2-2-2---3--3-3-|
A-3-3-3---5--5-5---2-2-2---3--3-3-|
E-1-1-1---3--3-3---0-0-0---1--1-1-|

E--------------------------------------|
B--------------------------------------|
G-2-2-2---2--2-2---4-4-4---4--4-4---5~-|
D-3-3-3---3--3-3---5-5-5---5--5-5---5~-|
A-3-3-3---3--3-3---5-5-5---5--5-5---3~-|
E-1-1-1---1--1-1---3-3-3---3--3-3------|

Verse:
E---------------------------------|
B---------------------------------|
G-5-5-5-5-5-5-5-5-----------------|
D-5-5-5-5-5-5-5-5-2-2-2-2-2-2-2-2-|
A-3-3-3-3-3-3-3-3-2-2-2-2-2-2-2-2-|
E-----------------0-0-0-0-0-0-0-0-|

E---------------------------------|
B---------------------------------|
G---------------------------------|
D-3-3-3-3-3-3-3-3-5-5-5-5-5-5-5-5-|
A-3-3-3-3-3-3-3-3-5-5-5-5-5-5-5-5-|
E-1-1-1-1-1-1-1-1-3-3-3-3-3-3-3-3-|

Chorus: twice
E---------------------------------|
B---------------------------------|
G-2-2-2---4--4-4------------------|
D-3-3-3---5--5-5---7-7-7---7--7-7-|
A-3-3-3---5--5-5---7-7-7---7--7-7-|
E-1-1-1---3--3-3---5-5-5---5--5-5-|

then

E---------------------------------|
B---------------------------------|
G-2-2-2---4--4-4---0-0-0---2--2-2-|
D-3-3-3---5--5-5---2-2-2---3--3-3-|
A-3-3-3---5--5-5---2-2-2---3--3-3-|
E-1-1-1---3--3-3---0-0-0---1--1-1-|

E---------------------------------|
B---------------------------------|
G-2-2-2---2--2-2---4-4-4---4--4-4-|
D-3-3-3---3--3-3---5-5-5---5--5-5-|
A-3-3-3---3--3-3---5-5-5---5--5-5-|
E-1-1-1---1--1-1---3-3-3---3--3-3-|

Break: twice palm muted
E---------------------------------|
B---------------------------------|
G---------------------------------|
D-3-3-3-3-5-5-5-5-7-7-7-7-7-7-7-7-|
A-3-3-3-3-5-5-5-5-7-7-7-7-7-7-7-7-|
E-1-1-1-1-3-3-3-3-5-5-5-5-5-5-5-5-|

then
not palm muted
E---------------------------------|
B---------------------------------|
G---------------------------------|
D-3-3-3-3-5-5-5-5-2-2-2-2-3-3-3-3-|
A-3-3-3-3-5-5-5-5-2-2-2-2-3-3-3-3-|
E-1-1-1-1-3-3-3-3-0-0-0-0-1-1-1-1-|

E---------------------------------|
B---------------------------------|
G---------------------------------|
D-3-3-3-3-3-3-3-3-5-5-5-5-5-5-5-5-|
A-3-3-3-3-3-3-3-3-5-5-5-5-5-5-5-5-|
E-1-1-1-1-1-1-1-1-3-3-3-3-3-3-3-3-|

Chorus: twice
E---------------------------------|
B---------------------------------|
G-2-2-2---4--4-4------------------|
D-3-3-3---5--5-5---7-7-7---7--7-7-|
A-3-3-3---5--5-5---7-7-7---7--7-7-|
E-1-1-1---3--3-3---5-5-5---5--5-5-|

then

E---------------------------------|
B---------------------------------|
G-2-2-2---4--4-4---0-0-0---2--2-2-|
D-3-3-3---5--5-5---2-2-2---3--3-3-|
A-3-3-3---5--5-5---2-2-2---3--3-3-|
E-1-1-1---3--3-3---0-0-0---1--1-1-|

E---------------------------------|
B---------------------------------|
G-2-2-2---2--2-2---4-4-4---4--4-4-|
D-3-3-3---3--3-3---5-5-5---5--5-5-|
A-3-3-3---3--3-3---5-5-5---5--5-5-|
E-1-1-1---1--1-1---3-3-3---3--3-3-|

do that whole thing twice then

Outro:
E---------------------|
B---------------------|
G-4-4-4---4--4-4---2~-|
D-5-5-5---5--5-5---2~-|
A-5-5-5---5--5-5---0~-|
E-3-3-3---3--3-3------|

Awesome song. was my favorite at one point. but yeah. have fun!
Questions?
Email - Coldfry1@aol.com
Tap to rate this tab
# A B C D E F G H I J K L M N O P Q R S T U V W X Y Z