Song name
# A B C D E F G H I J K L M N O P Q R S T U V W X Y Z

Blue October - For My Brother tab

-----------------------------------------------------------------------------
			     For My Brother - Blue October
----------------------------------------------------------------------------
Band: Blue October
Song: For My Brother
CD: Argue With a Tree
Tuning: EADGBe
          
           Ami                    C                     G
e|--------------------------------------------------------------------------|
B|--------1--1--------------------1----------------------3------3-----------|
G|------2------2----------------0---0-----------------0-----0---------------|
D|----2----------0------------2-------2------------0----------0-------------|
A|--0-----------------------3-----------0-----------------------------------|
E|----------------------------------------------3---------------------------|
           G
e|--------------------------------------------------------------------------|
B|-----------0--------------------------------------------------------------|
G|-----0----------0---------------------------------------------------------|
D|--------0----0-----0------------------------------------------------------|
A|--------------------------------------------------------------------------|
E|--3-----------------------------------------------------------------------|

Just listen for the melody off the cd.
Tap to rate this tab
# A B C D E F G H I J K L M N O P Q R S T U V W X Y Z