Song name
# A B C D E F G H I J K L M N O P Q R S T U V W X Y Z

Blue October - Mr Blues Menu tab

                               Blue October
                              Mr. Blue's Menu
                               The Answers
Standard Tuning

This is a simple song to play. I am 100% sure about this song.

Intro/Outro:
e----------------------------------------------------------|
b----------------------------------------------------------|
g----------------------------------------------------------|
d----------------------------------------------------------|
a--4--4--4--4--4--2--2--2---4--4--4--4--4--4--4--4--4--4---|
e--2--2--2--2--2--4--4--4---2--2--2--2--2--2--2--2--2--2---|
      x  x  x  x            x  x  x  x  x  x  x  x  x  x

Verse
e----------------|
b----------------|
g----------------|
d----------------|
a--4--11--8--9---|
e--2---9--6--7---|

Outro:
e------|
b------|
g------|
d------|
a--4---|
e--2---|
hold that


Intro 6x
Verse 10x
Intro 4x
Verse 8x
Intro 4x
Outro 1x

The strumming is easy to figure out. Most of the time on the verse he hits the last 
chord 4 times.
Tap to rate this tab
# A B C D E F G H I J K L M N O P Q R S T U V W X Y Z