Song name
# A B C D E F G H I J K L M N O P Q R S T U V W X Y Z

Blue Oyster Cult - Dance On Stilts tab

Dance On Stilts-Blue Oyster Cult


e|------------------------------------------|
B|------------------------------------------|
G|--2-2---2-2--2--2---2-2-------------------|
D|--0-0---0-0--0--0---0-3-3-^---------------|
A|------3-----------3-----------------------|
E|------------------------------------------|

e|------------------------------------------|
B|------------------------------------------|
G|--2-2---2-2--2--2---2-2-2-----------------|
D|--0-0---0-0--0--0---0-3-0-3-^-------------|
A|------3-----------3-----------------------|
E|------------------------------------------|

e|------------------------------------------|
B|-----------------------------3-3-3-3------|
G|--2-2---2-2--2--2---2-2------2-0-0-0------|
D|--0-0---0-0--0--0---0-3-3-^--0-0-0-0-0----|
A|------3-----------3--------------3-0-0----|
E|-------------------------------------3----|

thats pretty much it...


Tap to rate this tab
 
# A B C D E F G H I J K L M N O P Q R S T U V W X Y Z