Guitaretab - guitar tabs
Song name
# A B C D E F G H I J K L M N O P Q R S T U V W X Y Z

Blue Oyster Cult - After Dark tab

Dm       A     C      Am    G5      Em
44654 x02220 x24442 x02210 355xxx 022000
                                                       _____________________
Dm Dm...Dm Dm...A A...A A...Dm Dm...Dm Dm...A A...A A..IEm...C...Am...
________(4times Before Chorus)
(Riff1)I
[ Tab from: http://www.guitaretab.com/b/blue-oyster-cult/156984.html ]
Chorus:(4times)
---------------------------------------|
---------------------------------------|
---------------------------------------|
------------------0--------------------|
----------------2----2--3--2-0---------|
--0-0-2-3---3-3----------------3-2-1-0-|

Riff1:
-------------|
-------------|
-------------|
-------------|
-----------0-|
--0--2-3-----|
That's just about all for now. I'll come back later with more riffs and solos, which are 
a pentatonic scale. ENJOY!





BOC RULES!
Related for After Dark tab
×
After Dark