Song name
# A B C D E F G H I J K L M N O P Q R S T U V W X Y Z

Blue Oyster Cult - Stairway To The Stars tab

Tabbed by: Joe
Email: shadow_fang1963@yahoo.com

Questions, comments and miscellaneous F*** You's are ALL accepted!!!
this is my first tab, be gentle...

Tuning:

e|---------------------------------------------------------------------------|
B|---------------------------------------------------------------------------|
G|---------------------------------------0-2---------------------------------|
D|-pm2-22-2-2-2-2-2p02p0--pm2-22-2-2-2-2-0-2---------------------------------| x4
A|---------------------------------------------------------------------------|
E|---------------------------------------------------------------------------|

The same as above but palm muted

e|---------------------------------------------------------------------------|
B|---------------------------------------------------------------------------|
G|-------------------------------------------0-2*----------------------------|
D|-2-22-2-2-2-2-2p02p02p0---22-2-2-2-2-2-2-2-0-2*----------------------------|x2
A|---------------------------------------------------------------------------|
E|---------------------------------------------------------------------------|
(* means NOT Palm Muted)

Now the third time around has a bit of a variation
e|---------------------------------------------------------------------------|
B|---------------------------------------------------------------------------|
G|----------------------------------------2-4-2-0-0000-0000-2-2222-2222------|
D|-2-22-2-2-2-2-2p02p02p0--22-2-2-2-2-2-4-------0-0000-0000-2-2222-2222------|
A|---------------------------------------------------------------------------|
E|---------------------------------------------------------------------------|
this is during the "Stairway to the stars! think i'll write good health to you" and 
when he does the chorus.
e|---------------------------------------------------------------------------|
B|---------------------------------------------------------------------------|
G|--99-9-7-9-9--9--9-77-7-5-3-2-3--------------------------------------------|
D|--99-9-7-9--99-9-9-77-7-5-3-2-3--------------------------------------------|
A|---------------------------------------------------------------------------|
E|---------------------------------------------------------------------------|

that is the song basically minus the solo in which i just improvise...hope it sounds 
to you guys and if you need help i've got an mp3 on my profile here of how i do it. cheers...
Tap to rate this tab
# A B C D E F G H I J K L M N O P Q R S T U V W X Y Z