Song name
# A B C D E F G H I J K L M N O P Q R S T U V W X Y Z

Blue Oyster Cult - Astronomy tab

-------------------------------------------------------------------------------
			     Astronomy - Blue Öyster Cult
-------------------------------------------------------------------------------
Tabbed by:Joe
Email:joseph2929@sbcglobal.net

Tuning: Standard

e|-------------------------------------|
B|--4-3-2-4-2------4-3-2-4-2-----------|
G|------------4--------------2---------| x7
D|-------------------------------------|
A|-------------------------------------|
E|-------------------------------------|

e|--------------------|
B|--4-3-2-4-2---------|
G|------------4/6-----|   
D|--------------------|
B|--------------------|
E|--------------------|
 This is a Variation of those first initial 7 
 in which you slide up to the sixth fret. You can play them individually
 I just think the slide sounds better




e|---------------------------------------------|
B|---------------------------------------------|
G|-----7-7pm7-7pm7-5-5-5h7-5-5pm5-5pm5-7-7-----|
D|-----7-7pm7-7pm7-5-5-5h7-5-5pm5-5pm5-7-7-----|
A|---------------------------------------------|
E|---------------------------------------------|
 This is Played through the Chorus and stuff



I dont have the solos down but i just improv on them anyways. 
This is a good song once you have this stuff down,
it is just so free ranged you can make it your own.
I hope you guys dont trip too badly...

| /  slide up
| h  hammer-on
| p  pull-off
| pm  Palm Muted
===============================================================================
Tap to rate this tab
# A B C D E F G H I J K L M N O P Q R S T U V W X Y Z