Song name
# A B C D E F G H I J K L M N O P Q R S T U V W X Y Z

Blue Oyster Cult - Godzilla tab

Intro/Verse
|------------------------------|-------------------------------||
|------------------------------|-------------------------------||
|------------------------------|-------------------------------||
|-4----------------------------|-7-----------------------------||
|-4--hold-for-3-beats-9--11--6-|-7-hold-for-3-beats-13--14--9--||
|-2-------------------7--9---4-|-5------------------11--12--7--||

Little Verse Intro Thing
|--------||
|--------||
|--------||
|--16-14-||
|--------||
|--------||

Chorus:
E					    F#
Oh no, they say he’s got to go.  Go, go, Godzilla!

Little Bridge thing before chorus
|--------------|-------------|-----------|-----------||
|--------------|-------------|-----------|-----------||
|----------2-2-|-------------|---------2-|-----------||
|------2h4-----|-----2h4-4-4-|-----2h4---|-4p2-------||
|-2h4----------|-2h4---------|-2h4-------|-----4p2-2-||
|--------------|-------------|-----------|-----------||

On the solos, just mess around on a F# minor pentatonic scale.  Alternate between second 
base and fourteenth fret.

Song Order:
Intro 2X by itself.  2X with Little Verse Intro Thing
Verse
Chorus
Solo (Verse Riff)
Chorus
Bass solo/Godzilla repeat (no guitar)
Little Bridge thing
Chorus
Intro with Little Verse Intro Thing
Verse (History’s shown us…) until end.


Any questions or suggestions, email me at Philosophuh@yahoo.com
Tap to rate this tab
 
# A B C D E F G H I J K L M N O P Q R S T U V W X Y Z