Song name
# A B C D E F G H I J K L M N O P Q R S T U V W X Y Z

Blue Oyster Cult - E T I tab

  Intro (x2) (and verse, I guess)
E|----------------------------------------------------------------||
B|----------------------------------------------------------------||
G|---2------------------------------------------------------------||
D|-2-2------------------------------------------------------------||
A|-2-4------------2h4-5-5-4-2-------------------------------------||
E|-0----0h2p0-3h4-------------4p3---------------------------------||




    Then on the Third Time
E|----------------------------------------------------------------||
B|----------------------------------------------------------------||
G|---2------2-----------------------------------------------------||
D|-2-2--7-7-2-----------------------------------------------------||
A|-2-4--5-5-4-----------------------------------------------------||
E|-0--------------------------------------------------------------||

Chorus

     (I don't know how many times maybe three)
   A D
E|-0--2-2-2-----------------------------------------------------------||
B|-2--3-3-3-----------------------------------------------------------||
G|-2--2-2-2-----------------------------------------------------------||
D|-2--0-0-0-----------------------------------------------------------||
A|-0------------------------------------------------------------------||

Tap to rate this tab
# A B C D E F G H I J K L M N O P Q R S T U V W X Y Z