Song name
# A B C D E F G H I J K L M N O P Q R S T U V W X Y Z

Blue Oyster Cult - This Aint The Summer Of Love tab

Band: Blue Oyster Cult
Title: This Ain't the Summer of Love

Disclaimer: 
I personally tabbed this song, but I did not do the solo and I wouldn't guarantee this is perfect.

Tuning: Standard (E, A, D, G, B, e)
    [palm mute this beginning]
|---------------------------------------------------------------------------|
|---------------------------------------------------------------------------|
|---------------------------------------------------------------------------|
|---------------------------------------------------------------------------|
|---------------------------------------------------------------------------|
|----5---5---5---5---5---5---5---5---5---5---5---5---5---5---5---5---5---5--|
    [not sure exactly how many of these notes in a row...]
|---------------------------------------------------------------|
|---------------------------------------------------------------|
|---------------------------------------------------------------|
|---7---10--7-------7---10--7-------7---10--5-------7---10--7---|
|---7---10--7-------7---10--7-------7---10--5-------7---10--7---|
|---5---8---5-------5---8---5-------5---8---3-------5---8---5---|

|----------------------------------------------------|
|----------------------------------------------------|
|---7-7-7-----7-------7-------7----------------------|
|---7-7-7-----7-------7-------7-------9-------7-5----|
|---5-5-5-----5-------5-------5-------9-------7-5----|
|---------------------------------7---7---5---5-3----|
  "This ain't the garden of eden..."
|----------------------------------------------|
|----------------------------------------------|
|-------------------7-7-7---7---9--------------|
|---10-10-10---10---7-7-7---7---9--------------|
|---10-10-10---10---5-5-5---5---7--------------|
|---8--8--8----8-------------------------------|
   "and things ain't what..."
|---------------------------------------------------------------|
|---------------------------------------------------------------|
|---------------------------------------------------------------|
|---7---10--7-------7---10--7-------7---10--5-------7---10--7---|
|---7---10--7-------7---10--7-------7---10--5-------7---10--7---|
|---5---8---5-------5---8---5-------5---8---3-------5---8---5---|

|----------------------------------------------------|
|---7-7-7-----7-------7-------7----------------------|
|---7-7-7-----7-------7-------7-------9-------7-5----|
|---5-5-5-----5-------5-------5-------9-------7-5----|
|---------------------------------7---7---5---5-3----|

|----------------------------------------------|
|----------------------------------------------|
|-------------------7-7-7---7---9--------------|
|---10-10-10---10---7-7-7---7---9--------------|
|---10-10-10---10---5-5-5---5---7--------------|
|---8--8--8----8-------------------------------|

|---------------|
|---------------|
|---------------|
|---7---10--7---|
|---7---10--7---|
|---5---8---5---|

This is where the solo comes in (I haven't and probably won't tab it any time soon)

|----------------------------------------------------|
|----------------------------------------------------|
|---7-7-7-----7-------7-------7----------------------|
|---7-7-7-----7-------7-------7-------9-------7-5----|
|---5-5-5-----5-------5-------5-------9-------7-5----|
|---------------------------------7---7---5---5-3----|
  "This ain't the garden of eden..."
|----------------------------------------------|
|----------------------------------------------|
|-------------------7-7-7---7---9--------------|
|---10-10-10---10---7-7-7---7---9--------------|
|---10-10-10---10---5-5-5---5---7--------------|
|---8--8--8----8-------------------------------|
   "and things ain't what..."
|----------------------------------------------------|
|----------------------------------------------------|
|---7-7-7-----7-------7-------7----------------------|
|---7-7-7-----7-------7-------7-------9-------7-5----|
|---5-5-5-----5-------5-------5-------9-------7-5----|
|---------------------------------7---7---5---5-3----|
  "This ain't the garden of eden..."
|----------------------------------------------|
|----------------------------------------------|
|-------------------7-7-7---7---9--------------|
|---10-10-10---10---7-7-7---7---9--------------|
|---10-10-10---10---5-5-5---5---7--------------|
|---8--8--8----8-------------------------------|
   "and things ain't what..."
|---------------|
|---------------|
|---------------|
|---7---10--7---|
|---7---10--7---|
|---5---8---5---|


I don't know if this is perfect, but it's closer that what I've found elsewhere.  Hope you enjoy!

-JakeIves
Tap to rate this tab
 
# A B C D E F G H I J K L M N O P Q R S T U V W X Y Z