Blue Oyster Cult - The Vigil tab

-------------------------------------------------------------------------------
			     The Vigil - Blue Öyster Cult
-------------------------------------------------------------------------------

Tabbed by: Blooker


Key:

************************************

| /   slide up
| \   slide down
| h   hammer-on
| p   pull-off
| ~   vibrato
| +   harmonic
| x   Mute note
| b   Bend
| pb  Pre-bend
| br  Bend release
| pbr Pre-bend release
| brb Bend release bend

************************************

4.16.....

e|-------------------------------------------------------------------------------|
B|----------------------------------13-------------------------------------------|
G|--12b~----12br12--10-12p10-12-10-----10------12brp10---------------------------|
D|------------------------------------------------------12~----------------------|
A|-------------------------------------------------------------------------------|
E|-------------------------------------------------------------------------------|

e|-13-12-10-12-12h13p12p10----10-------------------------s12-13--13p12p10--------|
B|-------------------------13----13br13---10h13p10-10---------------------10-----|
G|-------------------------------------------------------------------------------|
D|-------------------------------------------------------------------------------|
A|-------------------------------------------------------------------------------|
E|-------------------------------------------------------------------------------|

e|-13b-13---12h13p12p10-------10-------------------------------------------------|
B|----------------------13~------8pbr-6-8-----------------------6-8-6h8p6--------|
G|-----------------------------------------7/-----s5-7-5h7p5--------------7------|
D|-----------------------------------------------------------7-------------------|
A|-------------------------------------------------------------------------------|
E|-------------------------------------------------------------------------------|

e|---------------------------------s12-12-12-12--12--12--------------------------|
B|-5-6--(5)h6p5---5-----5-6---6--------------------------------------------------|
G|--------------7---6-7-----7---7------------------------------------------------|
D|-------------------------------------------------------------------------------|
A|-------------------------------------------------------------------------------|
E|-------------------------------------------------------------------------------|

e|----13p10--------------------8h10----------------------------------------------|
B|-10-------10-13p10-10-13p10-------8h10--8p6----8p6---6---6-8b------------------|
G|--------------------------------------------7------7---7-----------------------|
D|-------------------------------------------------------------------------------|
A|-------------------------------------------------------------------------------|
E|-------------------------------------------------------------------------------|

e|-------------------------------------2-3-5-------------------------------------|
B|-8b-8b-8b-8b---8---6-8b----------5-6-------------------------------------------|
G|-----------------7-------------------------------------------------------------|
D|-------------------------------------------------------------------------------|
A|-------------------------------------------------------------------------------|
E|-------------------------------------------------------------------------------|



cheers!
Tap to rate this tab
 
# A B C D E F G H I J K L M N O P Q R S T U V W X Y Z