Song name
# A B C D E F G H I J K L M N O P Q R S T U V W X Y Z

Blue Oyster Cult - Black Blade tab

Black Blade by 
Blue Oyster Cult


Intro

e-------------------------------------
b-------------------------------------
G---10----------10--------------------
D---10----10----10---10---------------
A---8-----10----8----10---------------
E---------8----------8-----8-9-10-----
                          <--PM-->
Verse

e-------------|-------------|------------|-------------
b-------------|-------------|------------|-------------
G-------------|-------------|------------|-------------
D-------------|-------------|-----5---5--|-------------
A------8---8--|------1---1--|---5----5---|-----3---3---
E----8---8----|---1---1-----|------------|--3---3------


Chorus

e----------------------------------|--------------------------
b----------------------------------|--------------------------
G---10---------10------------------|------1--------7----------
D---10---10----10---10-------------|------1--------7----------
A---8----10----8----10-------------|----- 2--------5----------
E--------8----------8-----8-9-10---|------0-------------------

e------------------------------------|--------------------------
b------------------------------------|--------------------------
G---10----------10-------------------|------1--------1----------
D---10----10----10---10--------------|------1--------1----------
A---8-----10----8----10--------------|----- 2--------2----------
E---------8-----------8-----8-9-10---|------0--------0----------

Riff after Solo.

A----------------------------------------------
E---0h2--3--2--0--2--3-----0h2--3--2--1--3-----


Tabbed by Matthew Jones :) 
         the
Buck Dharma wannabe :D
Tap to rate this tab
# A B C D E F G H I J K L M N O P Q R S T U V W X Y Z