Song name
# A B C D E F G H I J K L M N O P Q R S T U V W X Y Z

Blue Oyster Cult - Transmaniacon Mc tab

Transmaniacon Mc
Blue Oyster Cult

Transcription by Jefferson
Standard tuning

------------------------|------------------------|
------------------------|------------------------|
------------------------|------------------------|
--x--x--12---x--x--12---|--x--x--12---x--x--12---|
--x--x--12---x--x--12---|--x--x--12---x--x--12---|
--x--x--10---x--x--10---|--x--x--10---x--x--10---|


--------------------------|--------------------------|
--------------------------|--------------------------|
|-------------------------|--------------------------|
-----7--6-----5--4--------|--------------------------|
--0--------7--------5--4--|--8--7--------6--5--------|
--------------------------|--------8--7--------6--5--|


With satan's hog no pig at all, and the weather getting dry
------------------------------------------------------------|
------------------------------------------------------------|
------------------------------------------------------------|
----7--5--2--0-------------5------7--5--2--0-------------5--|
-----7--5--3--0-3------5/7---------7--5--3--0-3------5/7----|
------------------------------------------------------------|

We'll head south from altamont in a cold blooded travelled trance
------------------------------------------------------------|
------------------------------------------------------------|
------------------------------------------------------------|
----7--5--2--0-------------5------7--5--2--0-------------5--|
-----7--5--3--0-3------5/7---------7--5--3--0-3------5/7----|
------------------------------------------------------------|

So clear the road my bully boys and let some thunder pass
A                     G               C               D


We're pain, we're steel, a plot of knives,
--------------------------------------------|
--------------------------------------------|
--------------------------------------------|
--7--5--2--0--------7--5--2--0--------------|
---7--5--3--0--------7--5--3--0-------------|
--------------------------------------------|

We're transmaniacon MC
                 D

----------------------------------------------------|
---------------------------8-7--6-5-----------------|
--------------------------------------8-7--6-5------|
--7-------5------7----------------------------------|
----7-7-----5-5--5----------------------------------|
----------------------------------------------------|
                 (there is actually a lick he plays around that D chord, play around 
it I say)


Behind the pantry, behind the tree, the ghouls adopt that child
Whose name resounds forever, whose name resounds on terror
And I'm no fool to call that hog, cause man I remember
Those who did resign their souls
To transmaniacon MC

(lead break in A pentatonic)
ending with
--------------------------|
-8-7--6-5-----------------|
------------8-7--6-5------|
--------------------------|
--------------------------|
--------------------------|

And surely we did offer up behind that stage at dawn
Beers and barracuda, reds and monocaine
Pure nectar of antipathy behind that stage at dawn
To those who would resign their souls
To transmaniacon MC

Cry the cable, cry the word, unknown terror's here
And won't you try this tasty snack, behind the scenes or but the back
Which was the stage at altamont, my humble boys of listless power:
We're pain, we're steel, a plot of knives
We're transmaniacon MC

(ending with first two riffs, but in reverse order)
Hope that helps.
It is a great great track.
Persnally I like to emulate his sound- overdriven and nasty, organic and not too 
and with a lot of reverb.
Tap to rate this tab
 
# A B C D E F G H I J K L M N O P Q R S T U V W X Y Z