Song name
# A B C D E F G H I J K L M N O P Q R S T U V W X Y Z

Blue Oyster Cult - Eti Extra Terrestrial Intelligence tab

-----------------------------------------------------------------------------
                             E.T.I. - Blue Öyster Cult
-----------------------------------------------------------------------------

Tabbed by: Blooker

Key:
************************************
| /   slide up
| \   slide down
| h   hammer-on
| p   pull-off
| ~   vibrato
| +   harmonic
| x   Mute note
| b   Bend
| pb  Pre-bend
| br  Bend release
| pbr Pre-bend release
| brb Bend release bend
************************************

1.40....
e|--------------------------------------------------------------------------|
B|----/17~--------------/17~------------21b-21pbr19-17~--17-21b-------------|
G|--------------------------------------------------------------------------|
D|--------------------------------------------------------------------------|
A|--------------------------------------------------------------------------|
E|--------------------------------------------------------------------------|

e|--------------------------------------------------------------------------|
B|-19p18p17-19-19b--19pbr-17-15--17-15br------------------------------------|
G|-----------------------------16--------12---------------------------------|
D|-----------------------------------------14-------------------12~---------|
A|--------------------------------------------------------10-12-------------|
E|------------------------------------------------x-10-12-------------------|

e|----------------------------10b------------------10brb--------------------|
B|--------------------------8------10b-rp8--10brp8--------------------------|
G|-12brp9-14brp12-9-9---7/9-------------------------------------------------|
D|--------------------------------------------------------------------------|
A|--------------------------------------------------------------------------|
E|--------------------------------------------------------------------------|


e|----15-17-18p17p15-17p15----15b-------------------------------------------|
B|-17----------------------17-----17-15------------------------15b-15b------|
G|--------------------------------------16p15p14----14----------------------|
D|-----------------------------------------------16---16-14-14--------------|
A|--------------------------------------------------------------------------|
E|--------------------------------------------------------------------------|


e|--------------------------------------------------------------------------|
B|-------15-17b-17pbr-17-17pb-17pbr-17-17pb-17pbr-17-17pb-17pbr-------------|
G|-14-16--------------------------------------------------------------------|
D|--------------------------------------------------------------------------|
A|--------------------------------------------------------------------------|
E|--------------------------------------------------------------------------|


e|--------------------------------------------------------------------------|
B|-17-15-br----15\17--------------------------------------------------------|
G|----------16--------------------------------------------------------------|
D|--------------------------------------------------------------------------|
A|--------------------------------------------------------------------------|
E|--------------------------------------------------------------------------|


2.47....
e|--------------------------------------------------------------------------|
B|-17-19p17--19b---17-19brp17-19b---17-19brp17-19b---17-19brp17--19b--------|
G|--------------------------------------------------------------------------|
D|--------------------------------------------------------------------------|
A|--------------------------------------------------------------------------|
E|--------------------------------------------------------------------------|

e|--------------------------------------------------------------------------|
B|----17----17----17--17-19-17-----17------------------5-8p7p5-5--5---------|
G|-16----16----19---------------19----19b-19b-19br/-----------------2-------|
D|--------------------------------------------------------------------5b--2-|
A|--------------------------------------------------------------------------|
E|--------------------------------------------------------------------------|

e|-------------------17b--17p15-17p15---------------------------------------|
B|------------17--17------------------17p15-------------------17-15s17------|
G|-s9~--------------------------------------16p14-16-14----16---------------|
D|---------17-------------------------------------------17------------------|
A|--------------------------------------------------------------------------|
E|--------------------------------------------------------------------------|

e|----19b-r19-19br19-19b--19p17-19p17--16-17--16h17p16-16----17-16----------|
B|-17-----------------------------------------------------17----------------|
G|--------------------------------------------------------------------------|
D|--------------------------------------------------------------------------|
A|--------------------------------------------------------------------------|
E|--------------------------------------------------------------------------|

e|----------------------------------14------------14-------------14---------|
B|-17p15/-x-15-15-15h17-17-------14----17------14----17----14-17----17~-17~-|
G|---------------------------s16-----------s16----------16------------------|
D|--------------------------------------------------------------------------|
A|--------------------------------------------------------------------------|
E|--------------------------------------------------------------------------|

e|----------14------------14----------------14------------------------14----|
B|----14-17----17~-----14----17-14----14-17----17----17~-17~----14-17----17-|
G|-16---------------16-------------16-------------16---------16-------------|
D|--------------------------------------------------------------------------|
A|--------------------------------------------------------------------------|
E|--------------------------------------------------------------------------|

e|-------14------------------14-----------------------------14--------------|
B|-17-14----17-14------14-17----17-14----17~--17~--17----14----17-----------|
G|----------------16------------------16--------------16--------------------|
D|--------------------------------------------------------------------------|
A|--------------------------------------------------------------------------|
E|--------------------------------------------------------------------------|

e|-14b--15p12-14-15-15p14p12-14----12---------------------------------------|
B|------------------------------15----15b-----------------------------------|
G|----------------------------------------12b-------------------------------|
D|--------------------------------------------14~---------------------------|
A|--------------------------------------------------------------------------|
E|--------------------------------------------------------------------------|

e|-17b--17-18-17-18-17-18--17h18p17p15----17-15-------17----17-15-16--------|
B|-------------------------------------17-------17-15----17-----------------|
G|--------------------------------------------------------------------------|
D|--------------------------------------------------------------------------|
A|--------------------------------------------------------------------------|
E|--------------------------------------------------------------------------|

e|-19-19b--19b---19br~------------------------------------------------------|
B|-------------------------s7-5-3------5--3s5-5-----------------------------|
G|---------------------------------4b------------7-4------------------------|
D|--------------------------------------------------------------------------|
A|--------------------------------------------------------------------------|
E|--------------------------------------------------------------------------|


Cheers!
Tap to rate this tab
# A B C D E F G H I J K L M N O P Q R S T U V W X Y Z