Song name
# A B C D E F G H I J K L M N O P Q R S T U V W X Y Z

Blue Oyster Cult - 7 Screaming Diz-busters tab

Help us improve GuitareTab! Take a short survey!
-----------------------------------------------------------------------------
		7 screaming diz-buster - blue oyster cult
-----------------------------------------------------------------------------
Tabbed by:erik brown
Email:fugdemonkey@aim.com

Tuning: standard

e|---------------------------------------------------------------------------|
B|-------------------------------------------5-------------------------------|
G|-------------------------------------------5-------------------------------|
D|-----9-------------------------------------5-------------------------------|
A|-----9------------5------7------9------------------------------------------|
E|-----7-----9---------------------------------------------------------------|
Related for 7 Screaming Diz-busters tab