Song name
# A B C D E F G H I J K L M N O P Q R S T U V W X Y Z

Blue Oyster Cult - Tattoo Vampire tab

Tattoo Vampire by the Blue Oyster Cult
(standard tuning)

|------|
|------|
|--x-x-|
|--x-x-|
|--x-x-|
|--x-x-|
repeat this like 1000 times and this 
is the first 11 seconds of the song


|--------------------------------------|
|--------------------------------------|
|--------------------------------------|
|--------------------------------3--3--|
|-5------------------------------1--1--|
|-3----1-2-3--1-2-3--1-2-3--1-3--------|
2 times

|-------------------------------------------------------------------|
|-------------------------------------------------------------------|
|-------------------------------------------------------------------|
|-5--5-5----------------------------3--3----------------------------|
|-3--3-3----------------------------1--1---3-4-5--3-4-5--3-4-5--3-5-|
|---------1-2-3--1-2-3--1-2-3--1-3----------------------------------|


|-------------------------------------------|
|-------------------------------------------|
|-------------------------------------------|
|-------------------------------------------|
|-1-------------------3---5-6--5-6--5-6-5---|
|---3--1-3--3-1-3-3-----------------------6-|
2 times


chorus
|--------------------------------------|
|--------------------------------------|
|--------------------------------------|
|--------------------------------------|
|-1---------1---------1--3-1-----1--5--|
|---3--1-3----3--1-3---------3------3--|


|------------|
|------------|
|------------|
|---3--3-----|
|---1--1--5--|
|---------3--|
Tap to rate this tab
 
# A B C D E F G H I J K L M N O P Q R S T U V W X Y Z