Song name
# A B C D E F G H I J K L M N O P Q R S T U V W X Y Z

Blue Oyster Cult - Vengence The Pact tab

Help us improve GuitareTab! Take a short survey!
Aminor         F          C         D5       D         Dsus4
x02210      133211      x32010    xx023x  xx0232      xx2033


Main Riff:


------------------------------------------|
------------------------------------------|
------------------------------------------|
------------------------------------------|
-----3---2--0-----0---2-------3---2--0----|
-0-------------3----------0-------------3-|

Verse:
-----------------------------------------|
-----------------------------------------|
-----------------------------------------|
-3-3-3-3-3-3-3-5-3-3-3-3-3-3-3-3---------|
-3-3-3-3-3-3-3-5-3-3-3-3-3-3-3-3---------|
-1-1-1-1-1-1-1-3-1-1-1-1-1-1-1-1---------|


Chorus Chord Progression:
Am...........F.....C D5 Am

Solo Riffs:(do to the fact that I couldn't get the whole thing)
--------5--9--7--4--5-p-4-p-2-----------14--15-17-19-20-19-17---------|
-3fb---------------------------------------------------------17-------|
---------------------------------------------------------------16-----|
----------------------------------------------------------------------|
----------------------------------------------------------------------|
----------------------------------------------------------------------|
BridgeI Chord Progression:
D....Dsus4....D etc.

BridgeII:
-----------------------------------------------------------------|
-----------------------------------------------------------------|
-----------------------------------------------------------------|
-4-4-44-4-44-4-44-4-44-4-4-2-2-22-2-22-222-7-6-4-444-444-444-----|
-4-4-44-4-44-4-44-4-44-4-4-2-2-22-2-22-222-7-6-4-444-444-444-----|
-2-2-22-2-22-2-22-2-22-2-2-0-0-00-0-00-000-5-4-2-222-222-222-----|
That's about it, folks. DFTR!
Related for Vengence The Pact tab