Song name
# A B C D E F G H I J K L M N O P Q R S T U V W X Y Z

Blue Rodeo - Dark Angel tab

Easily my favorite band from home, sitting in my dorm room and realized the previous
were wrong, this is how Greg Keelor plays Dark Angel.

Can strum or fingerpick, fingerpicking sounds best.  If you're going to fingerpick use
style I've tabbed out below, and although I didn't tab how to fingerpick Bm, use the same
as you used for C.

Capo 3

Intro/Fingerpicking style:
   G                          D                           C
e|-----3-------------3------|------2-------------2------|------0-------|
B|-0-------0----0--------0--|-3--------3----3--------3--|-1--------1---|
G|-------0-------------0----|----2---2---------2---2----|--------0-----|
D|---0-------------0--------|-0-------------0-----------|----2---------|
A|--------------------------|---------------------------|-3------------|
E|-3------------3-----------|---------------------------|--------------|
                    D                Verse....
e|-----0----------|------2------2-|
B|-1-------1------|-3--------3----|
G|-------0--------|----2---2----2-|
D|---2------------|-0-------------|
A|-3--------------|---------------|
E|----------------|---------------|

Verse:
           G                      C                G
I met this girl,  she was walking through one of my dreams
                 D         C    G
   She kissed my eyes and everything
           Bm      C       G
that she said made so much sense
   Bm         C               G        D
to me, that I still feel like I'm half asleep
Tap to rate this tab
 
# A B C D E F G H I J K L M N O P Q R S T U V W X Y Z