Song name
# A B C D E F G H I J K L M N O P Q R S T U V W X Y Z

Blue Rodeo - Rose-coloured Glasses tab

Rose-Coloured Glasses by Blue Rodeo                      
Tabbed by: GrateTheHouse
Email: frogmangod@hotmail.com

Tuning: Standard

It's shame there are so few tabs for this song.
This isn't exactly how the solo is played but it's a good place to start.
Use your ear to get the timing exact.

e|-7-7-7-7-0-7-7-77--------------------------------7-7-7-7-0-7-------------|
B|-7-7-7-7-5-7-7-77-5-2-5/7~--9-8-7b-7b-7pb-7pb-5--7-7-7-7-5-7-------------|
G|-----------------------------------------------------------------9h11----|
D|--------------------------------------------------------------9h11-------|
A|-------------------------------------------------------------------------|
E|-------------------------------------------------------------------------|

e|-----12----12----12----12------------------------------------------------|
B|-12br--12br--12br--12br--12br--17b-17-17-15-12-15--17b-17-17-15-12-15----|
G|-------------------------------------------------------------------------|
D|-------------------------------------------------------------------------|
A|-------------------------------------------------------------------------|
E|-------------------------------------------------------------------------|

e|-------------------------------------------------------------------------|
B|-------------------------------------------------------------------------|
G|-14br-16-14br-16-14br-16-14br-16-14br-16---------------------------------|
D|-------------------------------------------------------------------------|
A|-------------------------------------------------------------------------|
E|-------------------------------------------------------------------------|

| /  slide up
| \  slide down
| h  hammer-on
| p  pull-off
| ~  vibrato
| +  harmonic
| x  Mute note
============================================================================
Tap to rate this tab
# A B C D E F G H I J K L M N O P Q R S T U V W X Y Z