Song name
# A B C D E F G H I J K L M N O P Q R S T U V W X Y Z

Blue Rodeo - 5 Days In May tab

Ok This isn't completely perfect, but it's near it. It will hopefully get you well ony our way!
Tabbed by: Patrick Guiney
Band:Blue rodeo
Song: five days in may
album:five days in may

Any problems or quesiton email. pguiney_@hotmail.com

--------------------------------------------------------------------------|
--------------------------------------------------------------------------|
--------------------------------------------------------------------------|
---------------------------------------------5-4-5/7--4/54-----4/55-------|
---------------------------9h10-9-7-5-7----7-----------------7-----7------|
--0----2h3-2-----7h8-7----------------------------------------------------|

--------------------------------------------------------------------------|
--------------------------------------------------------------------------|
--------------------------------------------------------------------------|
-----------------------------------4/5-4-4/54-----5/7v--4h5-4-------------|
--5h7p5------------------5h7-5-7-----------------7--------------7---------|
---------7-5-7-----5h7----------------------------------------------------|

------------------------------------------------------12----------------|
--------------------------14-14-12----12------15--15--12----------------|
-5h7-7/9---------7h9-9----14-14-12--9-12-9----14b-14-----14-------------|
----------9-7h9---------------------------------------------12-14-14-14-|
------------------------------------------------------------------------|
------------------------------------------------------------------------|


                                           pm-----------------------------|
--------------------------------------------------------------------------|
-------------------------15----15-12--------------------------------------|
-12----------------1212--14b-r-14-12---14b----14-12----12----------12-----|
----12-12-12-12h14----------------------------------14----14-12-14--------|
--------------------------------------------------------------------------|
--------------------------------------------------------------------------|

  Full
--------------------------------------------------------------------------|
------15------15-15-15---------------15-15-15------14--12-----------------|
--14b-14r-----14b14b14b-------12---1414b14b14b-----14--12-----------------|
------------------------12-14-------------------12--------14-12-14v-12-14-|
--------------------------------------------------------------------------|
--------------------------------------------------------------------------|

--------------------------------------------------------------------------|
--15--15------------12----------------------------------------------------|
--14br14br----------12------------------------------------14p12-14br14br--|
-----------12-14-14-----------12-14p12--------------12-14-----------------|
------------------------12h14----------12h14-14-14------------------------|
--------------------------------------------------------------------------|


             full (bend as many times needed)
--------------------------------------------------------------------------|
--------------15--15--15---|---12-----15b---------------------------------|
--14p12-------14br14br14br-|-----12-------12------------------------------|
--------14-------------------------14-------------------------------------|
----------------------------------------------12h1414---------------------|
------------------------------------------------------15-12---------------|


After that, it's the muted part. Which I havent Got yet. I know some parts are off. But 
sure you will come up with something. Have fun
Tap to rate this tab
 
# A B C D E F G H I J K L M N O P Q R S T U V W X Y Z