Song name
# A B C D E F G H I J K L M N O P Q R S T U V W X Y Z

Blue Scholars - Tommy Chong tab

Here is the main guitar part from "Tommy Chong" There really isn't any indication of 
note duration in this tab, but these are the notes to play.

e-5-5-5-3-3-----------------------------------------------|
B----------5-5-3--3----3---3---3--3-5-3-------------------|
G--------------------5-------5----------5-2-0-2-----------|
D---------------------------------------------------------|
A---------------------------------------------------------|
E---------------------------------------------------------|

e------3-5-3---------------------------------------------|
B-3-5---------5--3-3---3--5-8-5--5-6-5-3---3-5-3---------|
G--------------------5-------------------5-------5-0-2---|
D--------------------------------------------------------|
A--------------------------------------------------------|
E--------------------------------------------------------|
Tap to rate this tab
 
# A B C D E F G H I J K L M N O P Q R S T U V W X Y Z