Song name
# A B C D E F G H I J K L M N O P Q R S T U V W X Y Z

Blue Scholars - Inkwell tab

Help us improve GuitareTab! Take a short survey!
-------------------------------------------------------------------------------
			     Inkwell - Blue Scholars
-------------------------------------------------------------------------------
Tabbed by: Max
Email: tido5000@gmail.com
http://www.bluescholars.com/news.html

Tuning: drop D to hit the low D, but you could definitely go without.

This is my first tab, let me know what you think. If you decide to add onto it, please 
me some credit.


e|------12------10-9-10--5---5----5----------------------------|
B|------10---------------3---2-----2------5-----3--2-----------|
G|------10---------------3---2------2---2-2---------3-2--3--2--|
D|-0~--------------------2---2-------0----3--------------------|
A|----12-------------------------------------------------------|
D|------------------------------------0------------------------|

...and repeat indefinitely. Enjoy.

206

| /  slide up
| \  slide down
| h  hammer-on
| p  pull-off
| ~  vibrato
| +  harmonic
| x  Mute note
===============================================================================
Related for Inkwell tab