Song name
# A B C D E F G H I J K L M N O P Q R S T U V W X Y Z

Blue Skies - Whats Wrong tab

INTRO:
Rhythm Guitar:
E|--7-x-7-x-7-999-7--7-x-7-x-7--5--|
B|--7-x-7-x-7-999-7--7-x-7-x-7--5--|
G|--8-x-8-x-8-999-7--8-x-8-x-8--6--| x2
D|--9-x-9-x-9-999-7--9-x-9-x-9--7--|
A|--9-x-9-x-9--------9-x-9-x-9--7--|
E|--7-x-7-x-7--------7-x-7-x-7--5--|

E|--0~--|
B|--0~--|
G|--1~--|
D|--2~--|
A|--2~--|
E|--0~--|

Rhythm Guitar:
E|--7-x-7-x-7-999-7--7-x-7-x-7--5--|
B|--7-x-7-x-7-999-7--7-x-7-x-7--5--|
G|--8-x-8-x-8-999-7--8-x-8-x-8--6--| x2
D|--9-x-9-x-9-999-7--9-x-9-x-9--7--|
A|--9-x-9-x-9--------9-x-9-x-9--7--|
E|--7-x-7-x-7--------7-x-7-x-7--5--|

Lead Guitar:
E|-----------------------------|
B|-----------------------------|
G|----9p7---9p7---7---9p7-9p7--|
D|--9-----9-----9---9-----9p7--|
A|--9-----9-----9---9----------|
E|-----------------------------|

Rhythm Guitar:
E|--0~--|
B|--0~--|
G|--1~--|
D|--2~--|
A|--2~--|
E|--0~--|


VERSE:
Rhythm Guitar:
E|--7-x-7-x-7-999-7--7-x-7-x-7--5-7--0-5--|
B|--7-x-7-x-7-999-7--7-x-7-x-7--5-7--0-5--|
G|--8-x-8-x-8-999-7--8-x-8-x-8--6-8--1-6--| x3
D|--9-x-9-x-9-999-7--9-x-9-x-9--7-9--2-7--|
A|--9-x-9-x-9--------9-x-9-x-9--7-9--2-7--|
E|--7-x-7-x-7--------7-x-7-x-7--5-7--0-5--|

E|--7-x-7-x-7-999-7--7-x-7-x-7--5--0~--|
B|--7-x-7-x-7-999-7--7-x-7-x-7--5--0~--|
G|--8-x-8-x-8-999-7--8-x-8-x-8--6--1~--|
D|--9-x-9-x-9-999-7--9-x-9-x-9--7--2~--|
A|--9-x-9-x-9--------9-x-9-x-9--7--2~--|
E|--7-x-7-x-7--------7-x-7-x-7--5--0~--|


BREAK:
Rhythm Guitar:
E|--7-x-7-x-7-999-7--7-x-7-x-7--5--|
B|--7-x-7-x-7-999-7--7-x-7-x-7--5--|
G|--8-x-8-x-8-999-7--8-x-8-x-8--6--| (x2)
D|--9-x-9-x-9-999-7--9-x-9-x-9--7--|
A|--9-x-9-x-9--------9-x-9-x-9--7--|
E|--7-x-7-x-7--------7-x-7-x-7--5--|

Lead Guitar:
E|-----------------------------|
B|-----------------------------|
G|----9p7---9p7---7---9p7-9p7--|
D|--9-----9-----9---9-----9p7--|
A|--9-----9-----9---9----------|
E|-----------------------------|

E|----------------------------|
B|----------------------------|
G|----9p7---9p7---7---9p7-9~--|
D|--9-----9-----9---9-----9~--|
A|--9-----9-----9---9---------|
E|----------------------------|

VERSE:
Rhythm Guitar:
E|--7-x-7-x-7-999-7--7-x-7-x-7--5-7--0-5--|
B|--7-x-7-x-7-999-7--7-x-7-x-7--5-7--0-5--|
G|--8-x-8-x-8-999-7--8-x-8-x-8--6-8--1-6--| x3
D|--9-x-9-x-9-999-7--9-x-9-x-9--7-9--2-7--|
A|--9-x-9-x-9--------9-x-9-x-9--7-9--2-7--|
E|--7-x-7-x-7--------7-x-7-x-7--5-7--0-5--|

E|--7-x-7-x-7-999-7--7-x-7-x-7--5--0~--|
B|--7-x-7-x-7-999-7--7-x-7-x-7--5--0~--|
G|--8-x-8-x-8-999-7--8-x-8-x-8--6--1~--|
D|--9-x-9-x-9-999-7--9-x-9-x-9--7--2~--|
A|--9-x-9-x-9--------9-x-9-x-9--7--2~--|
E|--7-x-7-x-7--------7-x-7-x-7--5--0~--|

BRIDGE:
Rhythm Guitar:
E|--x-x-x-x-00-0-0--|
B|--x-x-x-x-00-0-0--|
G|--x-x-x-x-11-1-1--| (till end)
D|--x-x-x-x-22-2-2--|
A|--x-x-x-x-22-2-2--|
E|--x-x-x-x-00-0-0--|


I haven't included the solo yet, i will update it when i have worked it out.
but the rhythm guitar is

E|--7-x-7-x-7-999-7--7-x-7-x-7--5--|
B|--7-x-7-x-7-999-7--7-x-7-x-7--5--|
G|--8-x-8-x-8-999-7--8-x-8-x-8--6--| (till end)
D|--9-x-9-x-9-999-7--9-x-9-x-9--7--|
A|--9-x-9-x-9--------9-x-9-x-9--7--|
E|--7-x-7-x-7--------7-x-7-x-7--5--|

If you have anything you think i've missed out then please leave a comment

Youtube Link: http://www.youtube.com/watch?v=ep2fe8Zi3AE
Facebook Link: www.facebook.com/MusicFromBlueSkies
Record Label: Scratch That Records
Tap to rate this tab
# A B C D E F G H I J K L M N O P Q R S T U V W X Y Z