Song name
# A B C D E F G H I J K L M N O P Q R S T U V W X Y Z

Blue Stahli - The Pure And The Tainted tab

Blue Stahli - Production Music Series Vol. 38, Electronic - The Pure And The Tainted

Tabbed By: FRr3AkOnALEaSh (smokin_05@hotmail.com)
Tuning: 6 String Tuned to Drop D (D A D G B E)

Riff 1 (Guitar 2)
E|-----------------------------------------------------|
B|-----------------------------------------------------|
G|-----------------------------------------------------|
D|------1h3-1h3-1h3------------------------------------|
A|-----------------------------------------------------| \
D|-----------------------------------------------------|  \
                                                           | Played
Riff 2 (Guitar 1)                                          | Together
E|-----------------------------------------------------|  /
B|-----------------------------------------------------| /
G|-----------------------------------------------------|
D|--3-3-----------3-4--3-4--3\1/3-------4--------------|
A|--3-3-----------3-4--3-4--3\1/3--333--4---3-4--3-6---|
D|--3-3-----------3-4--3-4--3\1/3--333--4---3-4--3-6---|
                                   ...
Riff 3 (Guitar 1)
E|------------------------------|
B|------------------------------|
G|------------------------------|
D|------------------------------|
A|--33-33---33-33----------4-3--|
D|--33-33---33-33---3-4-6--4-3--|
    .. ..   .. ..   . .

Riff 4 (Guitar 1)
E|-----------------------------|----------------------|
B|-----------------------------|----------------------|
G|-----------------------------|----------------------|
D|--------5/6------3/5--55-55--|----------------------|
A|--0000--3/4--00--1/3--33-33--|--000--1-1--3-3--1-1--|
D|--0000-------00--------------|--000--1-1--3-3--1-1--|
    ....       ..       .  .      ...  . .  . .  . .

Riff 5 (Guitar 1)
E|--------------|
B|--------------|
G|--------------|
D|--------------|
A|--------------|
D|--3--1h4-1h3--|
           
NOTE: Listen to the song to structure out each riff.
Tap to rate this tab
 
# A B C D E F G H I J K L M N O P Q R S T U V W X Y Z