Song name
# A B C D E F G H I J K L M N O P Q R S T U V W X Y Z

Blue Stahli - Spit It Out tab

-------------------------------------------------------------------------------
                             Spit It Out – Blue Stahli
-------------------------------------------------------------------------------
Tabbed by: Alexander Sergeichuk
E-mail: zergo.am@gmail.com

Tuning: standard (capo on 2nd fret). All notes are relative to capo

Here’s my version of how Bret’s acoustic cover of ‘Spit It Out’ by IAMX is played. 
If you have any suggestions or corrections, email me or leave a comment here. Hope 
you’ll enjoy this tab :)


Intro
e|------------------------------------------------------------------|
B|------------------------------------------------------------------|
G|------4-------------------------------4---------------------------|
D|------------6---6-------------4-------------6---6-------------4---|
A|----6---6-----6---6-----7-------6---6---6-----6---6-----7-------6-|
E|--4-------4---------4-4---4-4-----4-------4---------4-4---4-4-----|

e|------2----------------------------|
B|------x-----5-5-4-------4-4-4-5-4--|
G|------x---x-x-x-x-4-4-4-x-x-x-x-x--|
D|------x-x-x-x-x-x-x-x-x-x-x-x-x-x--|
A|----2---2-2-2-2-2-2-2-2-2-2-2-2-2--|
E|--0-----0-0-0-0-0-0-0-0-0-0-0-0-0--|
(sounds pretty good for me. Listen to song for proper strumming pattern)


e|-------------------------------------------|
B|-------------------------------------------|
G|--4-4-4-4-4-4-x-x-x-x-3-3-3-3-3-3-x-x-x-x--|
D|--4-4-4-4-4-4-x-x-x-x-4-4-4-4-4-4-x-x-x-x--|
A|--2-2-2-2-2-2-x-x-x-x-1-1-1-1-1-1-x-x-x-x--|
E|-------------------------------------------|


Verse and chorus
e|-------------------------------------------------------|
B|--4------0---------------------------------------------|
G|--6------1----4-4-4-4-4-4-x-x-x-x-3-3-3-3-3-3-x-x-x-x--|
D|--6------2----4-4-4-4-4-4-x-x-x-x-4-4-4-4-4-4-x-x-x-x--|
A|--6------2----2-2-2-2-2-2-x-x-x-x-1-1-1-1-1-1-x-x-x-x--|
E|--4------0---------------------------------------------|
   (x32) (x16)

That's all :)
Tap to rate this tab
 
# A B C D E F G H I J K L M N O P Q R S T U V W X Y Z