Song name
# A B C D E F G H I J K L M N O P Q R S T U V W X Y Z

Blue Stahli - This Will Make You Love Again tab

-------------------------------------------------------------------------------
                  This Will Make You Love Again  Blue Stahli
-------------------------------------------------------------------------------
Tabbed by: Alexander Sergeichuk
E-mail: zergo.am@gmail.com

Tuning: standard

Here's an acoustic version of 'This Will Make You Love Again' by Blue Stahli (originally 
performed by IAMX). Rate, leave a comment or email me if there's something wrong with 
tab. Enjoy :)


Intro:

e|---1-------------------------1----------------------------|
B|-----------1-----------------------1----------------------|
G|-----2-----------2-----3-------2---------2-------0-3-----2|
D|-0-----------2-----------0-0---------2---------0-----0----|
A|--------0----------3-------------0---------3--------------|
E|---------------1-----3-----------------1-----3---------3--|


Verse:

e|-1--11--11x----------------------------------|
B|-3--33--22x-1--11--11x------------3--33--33x-|
G|-2--22--22x-2--22--22x-2--22--22x-3--33--33x-|
D|-0--00--00x-2--22--22x-3--33--33x-0--00--00x-|
A|------------0--00--00x-3--33--33x-x--xx--xxx-|
E|-----------------------1--11--11x-3--33--33x-|


e|-1--11--11x----------------------------------|
B|-3--33--22x-1--11--11x------------3--33--33x-|
G|-2--22--22x-2--22--22x-2--22--22x-3--33--22x-|
D|-0--00--00x-2--22--22x-3--33--33x-0--00--00x-|
A|------------0--00--00x-3--33--33x-x--xx--xxx-|
E|-----------------------1--11--11x-3--33--33x-|

Repeat 2 times.


Interlude:

pt.1:

e|-------1---------------------------------------------------------|
B|-----3---3---3---------1-----------------------------------------|
G|---2-------2---2-----2---2---2---------2-------------0-3-----3-2-|
D|-0-----------------2-------2---2-----3---3---3-----0-----0-------|
A|-----------------0-----------------3-------3---3-----------------|
E|---------------------------------1---------------3---------3-----|

pt.2

e|-------1---------------------------------------------------------|
B|-----3---3---3-----------1---------------------------------------|
G|---2-------2---2-------2---2---2---------2-------------0-3-----3-|
D|-0---------------0---2-------2---2-----3---3---3-----0-----0-----|
A|-------------------0-----------------3-------3---3---------------|
E|-----------------------------------1---------------3---------3---|


Piano part:

e|--------------------------------------------------------|
B|--------------------------------------------------------|
G|-7--10--9-10--9--10--9--10------10--9-10--12--10--9--10-|
D|----------------------------10--------------------------|
A|--------------------------------------------------------|
E|--------------------------------------------------------|

Repeat 2 times.


Verse (see above)


Chorus:

e|--1-----------------|
B|--3----1---------3--|
G|--2----2----2----3--|
D|--0----2----3----0--|
A|-------0----3----x--|
E|------------1----3--|
   (x8) (x8) (x8) (x8)

e|--1---------------------|
B|--3----1---------3----3-|
G|--2----2----2----3----2-|
D|--0----2----3----0----0-|
A|-------0----3----x----x-|
E|------------1----3----3-|
   (x8) (x8) (x8) (x5) (x3)

Play 2 times.


Interlude: play pt.1 for 3 times, then pt.2 (shown above).


Verse (see above)


Interlude/outro: play pt.1 for 3 times, then pt.2 (shown above).
Tap to rate this tab
# A B C D E F G H I J K L M N O P Q R S T U V W X Y Z