Song name
# A B C D E F G H I J K L M N O P Q R S T U V W X Y Z

Blue Stahli - Anti You tab

Blue Stahli-Anti You
Tab by Dima Filinyuk
Intro:
D#|--------------------------------------|
A#|--------------------------------------|
F#|--------------------------------------|
C#|--------------------------------------|
G#|-3-5-5-5--3-5-5\8-5--3-5-5-5--3-5-5\8-|
C#|-3-5-5-5--3-5-5\8-5--3-5-5-5--3-5-5\8-|

D#|--------------------------------------|
A#|--------------------------------------|
F#|--------------------------------------|
C#|--------------------------------------|
G#|-3-5-5-5--3-5-5\8-5--8-8-7-6----------|
C#|-3-5-5-5--3-5-5\8-5--8-8-7-6----------|
\\\\\\\\\\\\\\\\\\\\\\\\\\\\\\\\\\\\\\X2\\
Pre-Verse:
D#|--------------------------------------|
A#|--------------------------------------|
F#|--------------------------------------|
C#|--------------------------------------|
G#|-3-5-5-5--3-5-5-5---------------------|
C#|-3-5-5-5--3-5-5-5---------------------|
Verse:

D#|--------------------------------------|
A#|--------------------------------------|
F#|--------------------------------------|
C#|--------------------------------------|
G#|-8-8-7-7-6-5--------------------------|
C#|-8-8-7-7-6-5--------------------------|
\\\\\\\\\\\\\\\\\\\\\\\\\\\\\\\\\\\\\\X2\\
Chorus:
D#|--------------------------------------|
A#|--------------------------------------|
F#|--------------------------------------|
C#|--------------------------------------|
G#|-3-5-5-5--3-5-5\8-5--3-5-5-5--3-5-5\8-|
C#|-3-5-5-5--3-5-5\8-5--3-5-5-5--3-5-5\8-|

D#|--------------------------------------|
A#|--------------------------------------|
F#|--------------------------------------|
C#|--------------------------------------|
G#|-3-5-5-5--3-5-5\8-5--8-8-7-6----------|
C#|-3-5-5-5--3-5-5\8-5--8-8-7-6----------|
\\\\\\\\\\\\\\\\\\\\\\\\\\\\\\\\\\\\\\X2\\
Pre-Verse
Verse
Chorus
Bridge:
D#|-----------------------------------------------------------------|
A#|-----------------------------------------------------------------|
F#|-----------------------------------------------------------------|
C#|---------------------------------------------------------------2-|
G#|---------------------------------------------------------------2-|
C#|-0-0-6-5-0-0-6-1-0-0-6-5-3-5-2-1-0-0-6-5-0-0-6-1-0-0-6-5-3-5---2-|
Pause!
MORE STRINGS!!!
D#|-----------------------------------------------------------------|
A#|-----------------------------------------------------------------|
F#|-----------------------------------------------------------------|
C#|-----------------------------------------------------------------|
G#|-0-0-6-5-0-0-6-1-0-0-6-5-3-5-2-1-0-0-6-5-0-0-6-1-0-0-6-5-3-5-----|
C#|-0-0-6-5-0-0-6-1-0-0-6-5-3-5-2-1-0-0-6-5-0-0-6-1-0-0-6-5-3-5-----|
Chorus
D#|--------------------------------------|
A#|--------------------------------------|
F#|--------------------------------------|
C#|--------------------------------------|
G#|-3-5-5-5--3-5-5\8-5--3-5-5-5--3-5-5\8-|
C#|-3-5-5-5--3-5-5\8-5--3-5-5-5--3-5-5\8-|

D#|-----------------------------------------|
A#|-----------------------------------------|
F#|-----------------------------------------|
C#|-----------------------------------------|
G#|-3-5-5-5--3-5-5\8-5--8-8-7-7-6-5---------|
C#|-3-5-5-5--3-5-5\8-5--8-8-7-7-6-5---------|
END!
Tap to rate this tab
# A B C D E F G H I J K L M N O P Q R S T U V W X Y Z