Song name
# A B C D E F G H I J K L M N O P Q R S T U V W X Y Z

Blue - One Love tab

[Tuned down a half step]
e|----1---|----3---|----5---|----3---|
b|----1---|----3-0-|--1-5-1-|----3-0-|
g|--2---2-|--0-----|2-------|--------|
d|0-------|--------|--------|--2-----|
a|--------|--------|0-------|--------|
e|--------|3-------|--------|0-------|

This is the main guitar tab for the song.
At the end of the verses and pre-choruses it changes to:

e|----1---|----1---|----3---|----3---|
b|----1---|----1---|----1-1-|----0-0-|
g|--2---2-|--2---2-|--0-----|--0-----|
d|0-------|--------|--------|--------|
a|--------|--------|--------|--------|
e|--------|--------|3-------|3-------|

I'm not completely certain about that last bit, but it seems to fit

Correct chords to follow :)
Tap to rate this tab
# A B C D E F G H I J K L M N O P Q R S T U V W X Y Z