Song name
# A B C D E F G H I J K L M N O P Q R S T U V W X Y Z

Blue - All Rise tab

-------------------------------------------------------------------------------
                             ALL RISE - Blue
-------------------------------------------------------------------------------
Tabbed by:Rob Freeman
E-mail:Rob.Freeman1@hotmail.com

Tuning:Standard
Intro and to be played in the Chorus and in the Outro, So basically every
where that isn't a verse.
e|---------------------------------------------------------------------------|
B|--------13---15---13-------------------------------------------13--15--16--|
G|--12------------------15---12------12--------------15--13--15--------------|
D|-----------------------------------------15---13---------------------------|
A|---------------------------------------------------------------------------|
E|---------------------------------------------------------------------------|

e|---------------------------------------------------------------------------|
B|--15-----------------------------------------------------------------------|
G|---------------------------------------------------------------------------|
D|------------------------------------X2-------------------------------------|
A|---------------------------------------------------------------------------|
E|---------------------------------------------------------------------------|
Verse. 
And in the 2nd part of the Intro. And in the chorus. and the outro
So once again......Everywhere :O   (Except the whole of the rap)

e|---------------------------------------------------------------------------|
B|-------------3-------4---------------------6-------------------------------|
G|-------------3--------------5--------------5-------7-----------------------|
D|---------------------------------------------------------------------------|
A|-----3------------------------------5--------------------------------------|
E|---------------------------------------------------------------------------|


Hope this helps you for this song. Im sure many will be looking for a tab of this 
song after the Big reunion has happened
Thank you.
Tap to rate this tab
 
# A B C D E F G H I J K L M N O P Q R S T U V W X Y Z