Bluejay - To The End Of The Map tab

To The End Of The Map

www.bluejaysongs.com
bluejay.bandcamp.com
facebook.com/bluejaymusic
twitter.com/bluejaysongs

Standard Tuning
Studio version Capo 8
Live version Capo 9

e ---------------5---0---------0--------0-------------------|
B -----1-----1----------1---------0--------0-----0ó-1ó0-1-0-|
G --2-----2-----------------4--------1--------1-------------|
D ----------------------------------------------------------|
A ----------------------------------------------------------|
E ----------------------------------------------------------|

e ----------------0------5---0---------0--------0----------|
B -0--------1-------1----------1---------0--------0--------|
G ----1---2-----2-----2------------4--------1--------1-----|
D ---------------------------------------------------------|
A ---------------------------------------------------------|
E ---------------------------------------------------------|

e ---------------------------------------------------------|
B -0---1---0-----------------------------------------------|
G ---------------------------------------------------------|
D ---------------------------------------------------------|
A ---------------------------------------------------------|
E ---------------------------------------------------------|


Unravel your organic consciousness
Itís susceptibility is suspicious
Waves capable of evolution
And torrents of data floating around

                   Cmaj7
Carrying sound
054000   054500
Floating around
Cmaj7
Carrying sound
054000   054500
Floating around
               G6   320010
to the end of the map
          Em/G                       322005
You think thereís some big fish
G6   320010                                                               Em/G      322005
We are mammals in the water coming up for air

e ----------------------------|
B ----------------------------|
G ---------2---------0--------|
D ------2--------2------------|
A ---0--------3----------2----|
E ----------------------------|

    F/A
e ---1------------------------|
B ---1------------------------|
G ---2------------------------|
D ---3---2---0----------------|
A ----------------------------|
E ----------------------------|

e ----------------------------|
B ----------------------------|
G ---------2---------0--------|
D ------2--------2------------|
A ---0--------3----------2----|
E ----------------------------|

    F/A
e ---1------------------------|
B ---1------------------------|
G ---2------------------------|
D ---3---2---0----------------|
A ----------------------------|
E ----------------------------|


Em     Esus     002000

e -----------------------------0--------|
B --------2->0-----0->1->0--------0-----|
G --------------2-----------2-----------|    x3
D --------------------------------------|
A --------------------------------------|
E --0--0--------------------------------|


You better leave this bitter water Ben
While the channels are changing for you
                                                                 E    G
Currently bending the water for you

E    G
You
E    G
You

             E       023100           G   330003
The big fish plays a good tune
             E       023100           G   330003
Iíll hold my breath with you
             E       023100           G   330003
The big fish plays a good tune
            E       023100         Am  G   Am  G
Iíll hold my breath for you

e ---------------------------------------------------2-|
B -----------------------------------------------------|
G -----------------------------------------------------|
D ---2---1---1---1---2---1---1---1---2---1---1---1---1-|
A -----------3---------------3---------------3---2---2-|
E -----------------------------------------------------|
Tap to rate this tab
 
# A B C D E F G H I J K L M N O P Q R S T U V W X Y Z