Song name
# A B C D E F G H I J K L M N O P Q R S T U V W X Y Z

Bluejay - Goblins tab

Goblins

www.bluejaysongs.com
bluejay.bandcamp.com
facebook.com/bluejaymusic

Standard Tuning
CAPO 3


Am7

Suppose I chose
To live so very domestically
With you in the stable
And I in the kitchen
Can you hear me cookin’?

Am7  002410  Am7  004010

Am7
Suppose I chose
To buy a golden ring to match this castle
						             F (100210)
Are you getting enough sun my dear?

Am7
Ooh and they say holy matrimony…
Ooh and they say what they say…
				    Em  G  A7  C
When my heretic’s loose

Em  G  A7  C
Em  G  A7  C

C

5-5-5-5-5-5-5-0-2-3-0-0-5-0-2-0-0-0-5-0-2-3-0-0-5-0-2-0-0-0-|
------------------------------------------------------------|
------------4-4-4-4-4-4-4-4-4-4-4-4-4-4-4-4-4-4-4-4-4-4-4-4-|
------------------------------------------------------------|
------------------------------------------------------------|
------------------------------------------------------------|




---------h/o7-------3---7--------0-|
-----------------------------------|
4-4-4-4-4-6-6-0-6-4-2-4-6-6-4-2----|
5-0-3-0-5-7-7-7-7-5-3-5-7-7-5-3-2--|
-----------------------------------|
-----------------------------------|

One Partner… (repeat this riff)
-------------------0---|
---------------------0-|
-2-0-2-2-----3-2-------|
-2-0-2—2---2---2-------|
-----------------------|
0----0-0-0-------0-----|

One partner can get quite moldy
You’re comin’ on home to the same old story
Lickin’ her legs in the kitchen
         F (100210)
But when he comes home
We’re disappearin’

Am7 (w/hammer-on b-string 1st fret & e-string 3rd fret)

F (100210) -> 300430 -> 500650
F (100210) -> 300430 -> 500650
You didn’t leave – We’d already started

Am7 (w/hammer-on b-string 1st fret & e-string 3rd fret)

F (100210) -> 300430 -> 500650
You didn’t leave – We’d already started
F (100210) -> 300430 -> 500650
You didn’t leave – We’d already started

(One Partner… riff)
-------------------0---|
---------------------0-|
-2-0-2-2-----3-2-------|
-2-0-2—2---2---2-------|
-----------------------|
0----0-0-0-------0-----|

One partner can get quite moldy
You’re comin’ on home to the same old story
Lickin’ her legs in the kitchen
But when he comes home
We’re disappearin’
Tap to rate this tab
 
# A B C D E F G H I J K L M N O P Q R S T U V W X Y Z