Song name
# A B C D E F G H I J K L M N O P Q R S T U V W X Y Z

Bluejuice - Broken Leg tab

Artist: Bluejuice
Track Name: Broken Leg
Album: Head of the Hawk
Year: 2009
Tabbed by: J Goddard (joestar636@hotmail.com)

Verse 1:
Repeat this at the beginning of each line:
  D
|-5-5------------|
|-5-5------------|
|-7-7--Let Ring--|
|-7-7------------|
|-5-5------------|
|----------------|

And just before the last line (They dont want to know me) play:

|-5-5------------|
|-5-5------------|
|-7-5------------|
|-7-7------------|
|-5-7------------|
|---5------------|

And keep strumming this chord with quick downstrokes

Chorus (All these fakes and all these frauds):

|-5-5-7-7-5-5-7-7-|
|-5-5-7-7-5-5-7-7-|
|-7-7-9-9-7-7-9-9-|
|-7-7-9-9-7-7-9-9-|
|-5-5-7-7-5-5-7-7-|
|-----------------|

And then, with (Im drowning):

|------------------------|
|------------------------|
|-11-11-9--7-7--6-7-6-7--|
|-11-11-9--7-7--6-7-6-7--|
|-9--9--7--5-5--4/5-4/5--|
|------------------------|

Bridge (Broken leg/ Outta my head/ What was that that I heard you say? Etc.):

|-5--7--9--10--5--7--5-|
|-5--7--9--10--5--7--5-|
|-7--9--11-12--7--9--5-|
|-7--9--11-12--7--9--7-|
|-5--7--9--10--5--7--7-|
|--------------------5-|

Fill any gaps with the above sections and on the outro, play:

|------------------------|
|------------------------|
|-11-11-9--7-7--6-7-6-7--|
|-11-11-9--7-7--6-7-6-7--|
|-9--9--7--5-5--4/5-4/5--|
|------------------------|

That's just about it but I realise there may be a few problems as this is my first tab. 
free to e-mail me at the above adress.

Thanks :)
Tap to rate this tab
# A B C D E F G H I J K L M N O P Q R S T U V W X Y Z