Song name
# A B C D E F G H I J K L M N O P Q R S T U V W X Y Z

Bluejuice - Act Yr Age tab

Intro/Verse/Main Riff
2x for intro
3x for verse
(...up..........afternoon)
e  ---------------------------------------------------|
B  ---------------------------------------------------|
G  ---------------------------------------------------|
D  ---------------------------------------------------|
A  5 55--5555  /7  7-77---9-7-5-4---------------------|
E  2 33--3232/3/5  5-55-------------------------------|

Last time before pre-chorus
e  ---------------------------------------------------|
B  ---------------------------------------------------|
G  ---------------------------------------------------|
D  ---------------------------------------------------|
A  5 55--5555  /7  7-77----7-7-7-7--------------------|
E  2 33--3232/3/5  5-55----5-5-5-5--------------------|

Note:
Spaces mean let ring
/ means slide up
- after note means staccato/not let ring

Pre-Chorus
(..why............time.....ooohh ooh.......your's and
e ------------------------------------------------|
B ------------------------------------------------|
G ------------------------------------------------|
D ------------------------------------------------|
A 9 9-9-9-9-9-9-9-9 9-9-9-9-9-9-9-7 7-7-7-7-7-7-7-|
E 7 7-7-7-7-7-7-7-5 5-5-5-5-5-5-5-3 3-3-3-3-3-3-3-|
  mine mine mine)
e -----------------------------------------------|
B -----------------------------------------------|
G 7 7-77-----------------------------------------|
D 7 7-77--7 7------------------------------------|
A 5 5-55--7 7---7-9-7----------------------------|
E --------5 5------------------------------------|
 (why............mind.............fine..........
e ------------------------------------------------|
B ------------------------------------------------|
G ------------------------------------------------|
D ------------------------------------------------|
A 9 9-9-9-9-9-9-9-9 9-9-9-9-9-9-9-7 7-7-7-7-7-7-7-|
E 7 7-7-7-7-7-7-7-5 5-5-5-5-5-5-5-3 3-3-3-3-3-3-3-|
..bye)           (...to me)
e ----------------------|
B ----------------------|
G ----------------------|
D 7             --------|
A 7             9-7-5-4-|
E 5             --------|
      (why....                    ) X4
e  ---------------------------------------------------|
B  ---------------------------------------------------|
G  ---------------------------------------------------|
D  ---------------------------------------------------|
A  5 55--5555  /7  7-77---9-7-5-4---------------------|
E  2 33--3232/3/5  5-55-------------------------------|

Second Pre-chorus
  (nothing gives me pleasure...........
e ------------------------------------------------|
B ------------------------------------------------|
G ------------------------------------------------|
D ------------------------------------------------|
A 9 9-9-9-9-9-9-9-9 9-9-9-9-9-9-9-7 7-7-7-7-7-7-7-|
E 7 7-7-7-7-7-7-7-5 5-5-5-5-5-5-5-3 3-3-3-3-3-3-3-|
.but me.........sayin' to me)
e ----------------------|
B ----------------------|
G ----------------------|
D 7             --------|
A 7             9-7-5-4-|
E 5             --------|
(why don't you act........) x11
e  ---------------------------------------------------|
B  ---------------------------------------------------|
G  ---------------------------------------------------|
D  ---------------------------------------------------|
A  5 55--5555  /7  7-77---9-7-5-4---------------------|
E  2 33--3232/3/5  5-55-------------------------------|

Finish
e  ---------------|
B  ---------------|
G  ---------------|
D  ---------------|
A  5 55--5555  /7
E  2 33--3232/3/5


This tab is a mixture of mainly the underlying chords and bit of the lead which is 
played by the strings in the song.


Song (and hilarious film clip) at:
http://www.youtube.com/watch?v=j2N32PIYVHc

Tabbed by: Cassman

I am confident with the verse but a little unsure with the pre-chorus. Gave it my 
best shot though.

Feedback very welcome.
E-mail m.cassin91@gmail.com

Cheers
Tap to rate this tab
# A B C D E F G H I J K L M N O P Q R S T U V W X Y Z