Song name
# A B C D E F G H I J K L M N O P Q R S T U V W X Y Z

Blueline Medic - Write Us tab

Song: Write Us
Band: Blueline Medic
Album: The Apology Wars
Tabbed by Travis Bonner Clyde_Trav@jimmyeatworld.net

Intro
grt1
e:------------------------------
B:------------------------------
G:-5-5-xxxx-5-5-xxxx-5-5-xxxx-5-
D:-5-5-xxxx-5-5-xxxx-5-5-xxxx-5-
A:-3-3-xxxx-3-3-xxxx-3-3-xxxx-3-
E:------------------------------
grt2
e:------------------------------
B:----------5-5------6-6--------
G:-5-5------------------------5-
D:----------2-2------3-3--------
A:-3-5------------------------3-
E:------------------------------

verse 1
e:-----------------------------------
B:---5-------5-------5-------5-------
G:-----5-------5-------5-------5-----
D:-----------------------------------
A:-3-------3-------3-------3-------3-
E:-----------------------------------

Pre Chorus
 P.M......................
e:---------------------------------
B:---------------------------------
G:-5-5-5-5-5-5-5-5-5-5-5-5-5-5-5-5-
D:-5-5-5-5-5-5-5-5-5-5-5-5-5-5-5-5-
A:-3-3-3-3-3-3-3-3-3-3-3-3-3-3-3-3-
E:---------------------------------

Chorus
e:------------------------------
B:------------------------------
G:-5-5-xxxx-5-5-xxxx-5-5-xxxx-5-
D:-5-5-xxxx-5-5-xxxx-5-5-xxxx-5-
A:-3-3-xxxx-3-3-xxxx-3-3-xxxx-3-
E:------------------------------

e:---------------------------------
B:---------------------------------
G:-4-4-4-4-4-4-4-4-2-2-2-2-2-2-2-2-
D:-5-5-5-5-5-5-5-5-3-3-3-3-3-3-3-3-
A:-5-5-5-5-5-5-5-5-3-3-3-3-3-3-3-3-
E:-3-3-3-3-3-3-3-3-1-1-1-1-1-1-1-1-

e:------------------------------
B:------------------------------
G:-5-5-xxxx-5-5-xxxx-5-5-xxxx-5-
D:-5-5-xxxx-5-5-xxxx-5-5-xxxx-5-
A:-3-3-xxxx-3-3-xxxx-3-3-xxxx-3-
E:------------------------------

e:---------------------------------
B:---------------------------------
G:-7-7-7-7-7-7-7-7-5-5-5-5-5-5-5-5-
D:-7-7-7-7-7-7-7-7-5-5-5-5-5-5-5-5-
A:-5-5-5-5-5-5-5-5-3-3-3-3-3-3-3-3-
E:---------------------------------

Verse2
e:-------------------------------------------------
B:-------------------------------------------------
G:-5-5-5-5-7-7-7-7---------------------------------
D:-5-5-5-5-7-7-7-7-7-7-7-7-5-5-5-5-3-3-3-3-3-3-3-3-
A:-3-3-3-3-5-5-5-5-7-7-7-7-5-5-5-5-3-3-3-3-3-3-3-3-
E:-----------------5-5-5-5-3-3-3-3-1-1-1-1-1-1-1-1-
Tap to rate this tab
# A B C D E F G H I J K L M N O P Q R S T U V W X Y Z