Song name
# A B C D E F G H I J K L M N O P Q R S T U V W X Y Z

Blueprins - We Threes Dragon tab

Guitar one

e---------------------------|
b---------------------------|
g---------------------------|
d-7/9-9-xx-----x-----xx-7-7-|
a-5/7-7-xx-9-9-x-7-7-xx-5-5-|
E-------xx-7-7-x-5-5-xx-----|

Guitar 2

Note: amp is a lower sound
e---------------------------|
b---------------------------|
g---------------------------|
d---------------------------|
a---------------------------|
E-3-3-x-x-5-5-x-x-3-5-5-x-x-|

Guitar 3

Note: amp at very low sound

e-----------------------------|
b-----------------------------|
g-----------------------------|
d-----------------------------|
a-2br-2br-2br-2br-12-8-12-x-x-|
E-2br-2br-2br-2br---------x-x-|
Tap to rate this tab
 
# A B C D E F G H I J K L M N O P Q R S T U V W X Y Z