Song name
# A B C D E F G H I J K L M N O P Q R S T U V W X Y Z

Blues Brothers - Sweet Home Chicago Live tab

e-----10--------10----------------10--------10----------|
B-/12----12-/12----12--10~~---/12----12-/12----12--10~~-|
G-------------------------------------------------------|
D-------------------------------------------------------|
A-------------------------------------------------------|
E-------------------------------------------------------|

e--7----------------------------------------------------|
B--8----------------------------------------------------|
G-----/9\-----------------------------------------------|
D-----------2--2-2p0---------2p0------------------------|
A--------------------2p0---------0-2-2~~~---------------|
E------------------------3p0----------------------------|
Tap to rate this tab
# A B C D E F G H I J K L M N O P Q R S T U V W X Y Z