Song name
# A B C D E F G H I J K L M N O P Q R S T U V W X Y Z

Blues Brothers - Peter Gunn tab

play this throughout the song

e -------------------------
b -------------------------
g -------------------------
d -------------------------
a -----------------1-1-----
E -1-1--3-0-4-0------------


this is very basic but it saves u from sliding around the guitar.....
 if u have any problems .. email me on .. peteo_donnell@hotmail.com

also if u want to solo ...solo around the 12 fret in a- minor scale

--------------12-------14--------------------------
--------------12-------15--------------------------
--------------12-------14-------------------------- the scale is something like 
--------------12-------14-------------------------- this
--------------12-------15--------------------------
--------------12-------15--------------------------
Tap to rate this tab
 
# A B C D E F G H I J K L M N O P Q R S T U V W X Y Z